ISO-10303-21;
HEADER;
/* Generated by software containing ST-Developer
 * from STEP Tools, Inc. (www.steptools.com) 
 */
/* OPTION: using custom schema-name function */

FILE_DESCRIPTION(
/* description */ ('VariCAD 2014-2.05 AP-214'),
/* implementation_level */ '2;1');

FILE_NAME(
/* name */ 'PZT_mirror_adapter.stp',
/* time_stamp */ '2021-07-07T13:55:28+09:00',
/* author */ (''),
/* organization */ (''),
/* preprocessor_version */ 'ST-DEVELOPER v14',
/* originating_system */ 'VariCAD 2014-2.05; kernel version (20130303)',

/* authorisation */ '');

FILE_SCHEMA (('AUTOMOTIVE_DESIGN'));
ENDSEC;

DATA;
#10=MECHANICAL_DESIGN_GEOMETRIC_PRESENTATION_REPRESENTATION('',(#148,#149),
#422);
#11=FACE_BOUND('',#61,.F.);
#12=FACE_BOUND('',#64,.F.);
#13=CYLINDRICAL_SURFACE('',#282,5.);
#14=CYLINDRICAL_SURFACE('',#283,12.7);
#15=CYLINDRICAL_SURFACE('',#285,5.);
#16=CYLINDRICAL_SURFACE('',#287,12.7);
#17=CIRCLE('',#274,5.);
#18=CIRCLE('',#275,5.);
#19=CIRCLE('',#276,12.7);
#20=CIRCLE('',#277,12.7);
#21=CIRCLE('',#278,5.);
#22=CIRCLE('',#279,5.);
#23=CIRCLE('',#280,12.7);
#24=CIRCLE('',#281,12.7);
#25=CONTEXT_DEPENDENT_SHAPE_REPRESENTATION(#29,#236);
#26=CONTEXT_DEPENDENT_SHAPE_REPRESENTATION(#30,#238);
#27=NEXT_ASSEMBLY_USAGE_OCCURRENCE('','','',#239,#240,'');
#28=NEXT_ASSEMBLY_USAGE_OCCURRENCE('','','',#239,#241,'');
#29=(
REPRESENTATION_RELATIONSHIP('','',#260,#261)
REPRESENTATION_RELATIONSHIP_WITH_TRANSFORMATION(#31)
SHAPE_REPRESENTATION_RELATIONSHIP()
);
#30=(
REPRESENTATION_RELATIONSHIP('','',#260,#262)
REPRESENTATION_RELATIONSHIP_WITH_TRANSFORMATION(#32)
SHAPE_REPRESENTATION_RELATIONSHIP()
);
#31=ITEM_DEFINED_TRANSFORMATION('','',#272,#264);
#32=ITEM_DEFINED_TRANSFORMATION('','',#289,#273);
#33=SHAPE_REPRESENTATION_RELATIONSHIP('','',#261,#35);
#34=SHAPE_REPRESENTATION_RELATIONSHIP('','',#262,#36);
#35=ADVANCED_BREP_SHAPE_REPRESENTATION('',(#39,#271),#420);
#36=ADVANCED_BREP_SHAPE_REPRESENTATION('',(#40,#288),#421);
#37=CLOSED_SHELL('',(#115,#116,#117,#118,#119,#120));
#38=CLOSED_SHELL('',(#121,#122,#123,#124,#125,#126));
#39=MANIFOLD_SOLID_BREP('',#37);
#40=MANIFOLD_SOLID_BREP('',#38);
#41=FACE_OUTER_BOUND('',#53,.F.);
#42=FACE_OUTER_BOUND('',#54,.F.);
#43=FACE_OUTER_BOUND('',#55,.F.);
#44=FACE_OUTER_BOUND('',#56,.F.);
#45=FACE_OUTER_BOUND('',#57,.F.);
#46=FACE_OUTER_BOUND('',#58,.F.);
#47=FACE_OUTER_BOUND('',#59,.F.);
#48=FACE_OUTER_BOUND('',#60,.F.);
#49=FACE_OUTER_BOUND('',#62,.F.);
#50=FACE_OUTER_BOUND('',#63,.F.);
#51=FACE_OUTER_BOUND('',#65,.F.);
#52=FACE_OUTER_BOUND('',#66,.F.);
#53=EDGE_LOOP('',(#67,#68,#69,#70));
#54=EDGE_LOOP('',(#71,#72,#73,#74));
#55=EDGE_LOOP('',(#75,#76,#77,#78));
#56=EDGE_LOOP('',(#79,#80,#81,#82));
#57=EDGE_LOOP('',(#83,#84,#85,#86));
#58=EDGE_LOOP('',(#87,#88,#89,#90));
#59=EDGE_LOOP('',(#91,#92,#93,#94));
#60=EDGE_LOOP('',(#95,#96,#97,#98));
#61=EDGE_LOOP('',(#99,#100));
#62=EDGE_LOOP('',(#101,#102));
#63=EDGE_LOOP('',(#103,#104,#105,#106));
#64=EDGE_LOOP('',(#107,#108));
#65=EDGE_LOOP('',(#109,#110));
#66=EDGE_LOOP('',(#111,#112,#113,#114));
#67=ORIENTED_EDGE('',*,*,#182,.T.);
#68=ORIENTED_EDGE('',*,*,#185,.T.);
#69=ORIENTED_EDGE('',*,*,#184,.T.);
#70=ORIENTED_EDGE('',*,*,#183,.T.);
#71=ORIENTED_EDGE('',*,*,#186,.F.);
#72=ORIENTED_EDGE('',*,*,#187,.F.);
#73=ORIENTED_EDGE('',*,*,#188,.F.);
#74=ORIENTED_EDGE('',*,*,#189,.F.);
#75=ORIENTED_EDGE('',*,*,#182,.F.);
#76=ORIENTED_EDGE('',*,*,#190,.F.);
#77=ORIENTED_EDGE('',*,*,#186,.T.);
#78=ORIENTED_EDGE('',*,*,#193,.T.);
#79=ORIENTED_EDGE('',*,*,#183,.F.);
#80=ORIENTED_EDGE('',*,*,#191,.F.);
#81=ORIENTED_EDGE('',*,*,#187,.T.);
#82=ORIENTED_EDGE('',*,*,#190,.T.);
#83=ORIENTED_EDGE('',*,*,#184,.F.);
#84=ORIENTED_EDGE('',*,*,#192,.F.);
#85=ORIENTED_EDGE('',*,*,#188,.T.);
#86=ORIENTED_EDGE('',*,*,#191,.T.);
#87=ORIENTED_EDGE('',*,*,#185,.F.);
#88=ORIENTED_EDGE('',*,*,#193,.F.);
#89=ORIENTED_EDGE('',*,*,#189,.T.);
#90=ORIENTED_EDGE('',*,*,#192,.T.);
#91=ORIENTED_EDGE('',*,*,#194,.F.);
#92=ORIENTED_EDGE('',*,*,#199,.F.);
#93=ORIENTED_EDGE('',*,*,#195,.F.);
#94=ORIENTED_EDGE('',*,*,#198,.T.);
#95=ORIENTED_EDGE('',*,*,#196,.T.);
#96=ORIENTED_EDGE('',*,*,#201,.F.);
#97=ORIENTED_EDGE('',*,*,#197,.T.);
#98=ORIENTED_EDGE('',*,*,#200,.T.);
#99=ORIENTED_EDGE('',*,*,#202,.T.);
#100=ORIENTED_EDGE('',*,*,#194,.T.);
#101=ORIENTED_EDGE('',*,*,#205,.F.);
#102=ORIENTED_EDGE('',*,*,#197,.F.);
#103=ORIENTED_EDGE('',*,*,#198,.F.);
#104=ORIENTED_EDGE('',*,*,#203,.F.);
#105=ORIENTED_EDGE('',*,*,#199,.T.);
#106=ORIENTED_EDGE('',*,*,#202,.F.);
#107=ORIENTED_EDGE('',*,*,#203,.T.);
#108=ORIENTED_EDGE('',*,*,#195,.T.);
#109=ORIENTED_EDGE('',*,*,#204,.F.);
#110=ORIENTED_EDGE('',*,*,#196,.F.);
#111=ORIENTED_EDGE('',*,*,#200,.F.);
#112=ORIENTED_EDGE('',*,*,#205,.T.);
#113=ORIENTED_EDGE('',*,*,#201,.T.);
#114=ORIENTED_EDGE('',*,*,#204,.T.);
#115=ADVANCED_FACE('',(#41),#127,.T.);
#116=ADVANCED_FACE('',(#42),#128,.T.);
#117=ADVANCED_FACE('',(#43),#129,.T.);
#118=ADVANCED_FACE('',(#44),#130,.T.);
#119=ADVANCED_FACE('',(#45),#131,.T.);
#120=ADVANCED_FACE('',(#46),#132,.T.);
#121=ADVANCED_FACE('',(#47),#13,.F.);
#122=ADVANCED_FACE('',(#48),#14,.T.);
#123=ADVANCED_FACE('',(#11,#49),#133,.T.);
#124=ADVANCED_FACE('',(#50),#15,.F.);
#125=ADVANCED_FACE('',(#12,#51),#134,.T.);
#126=ADVANCED_FACE('',(#52),#16,.T.);
#127=PLANE('',#265);
#128=PLANE('',#266);
#129=PLANE('',#267);
#130=PLANE('',#268);
#131=PLANE('',#269);
#132=PLANE('',#270);
#133=PLANE('',#284);
#134=PLANE('',#286);
#135=PRESENTATION_STYLE_ASSIGNMENT((#137));
#136=PRESENTATION_STYLE_ASSIGNMENT((#138));
#137=SURFACE_STYLE_USAGE(.BOTH.,#139);
#138=SURFACE_STYLE_USAGE(.BOTH.,#140);
#139=SURFACE_SIDE_STYLE('',(#141));
#140=SURFACE_SIDE_STYLE('',(#142));
#141=SURFACE_STYLE_FILL_AREA(#143);
#142=SURFACE_STYLE_FILL_AREA(#144);
#143=FILL_AREA_STYLE('',(#145));
#144=FILL_AREA_STYLE('',(#146));
#145=FILL_AREA_STYLE_COLOUR('',#147);
#146=FILL_AREA_STYLE_COLOUR('',#147);
#147=COLOUR_RGB('Colour',0.792156862745098,0.792156862745098,0.870588235294118);
#148=STYLED_ITEM('',(#135),#39);
#149=STYLED_ITEM('',(#136),#40);
#150=LINE('',#370,#166);
#151=LINE('',#371,#167);
#152=LINE('',#372,#168);
#153=LINE('',#373,#169);
#154=LINE('',#374,#170);
#155=LINE('',#375,#171);
#156=LINE('',#376,#172);
#157=LINE('',#377,#173);
#158=LINE('',#378,#174);
#159=LINE('',#379,#175);
#160=LINE('',#380,#176);
#161=LINE('',#381,#177);
#162=LINE('',#403,#178);
#163=LINE('',#404,#179);
#164=LINE('',#405,#180);
#165=LINE('',#406,#181);
#166=VECTOR('',#294,5.);
#167=VECTOR('',#295,5.);
#168=VECTOR('',#296,5.);
#169=VECTOR('',#297,5.);
#170=VECTOR('',#298,5.);
#171=VECTOR('',#299,5.);
#172=VECTOR('',#300,5.);
#173=VECTOR('',#301,5.);
#174=VECTOR('',#302,3.);
#175=VECTOR('',#303,3.);
#176=VECTOR('',#304,3.);
#177=VECTOR('',#305,3.);
#178=VECTOR('',#332,6.);
#179=VECTOR('',#333,6.);
#180=VECTOR('',#334,6.);
#181=VECTOR('',#335,6.);
#182=EDGE_CURVE('',#213,#212,#150,.T.);
#183=EDGE_CURVE('',#211,#213,#151,.T.);
#184=EDGE_CURVE('',#210,#211,#152,.T.);
#185=EDGE_CURVE('',#212,#210,#153,.T.);
#186=EDGE_CURVE('',#209,#208,#154,.T.);
#187=EDGE_CURVE('',#207,#209,#155,.T.);
#188=EDGE_CURVE('',#206,#207,#156,.T.);
#189=EDGE_CURVE('',#208,#206,#157,.T.);
#190=EDGE_CURVE('',#209,#213,#158,.T.);
#191=EDGE_CURVE('',#207,#211,#159,.T.);
#192=EDGE_CURVE('',#206,#210,#160,.T.);
#193=EDGE_CURVE('',#208,#212,#161,.T.);
#194=EDGE_CURVE('',#221,#220,#17,.T.);
#195=EDGE_CURVE('',#219,#218,#18,.T.);
#196=EDGE_CURVE('',#217,#216,#19,.T.);
#197=EDGE_CURVE('',#215,#214,#20,.T.);
#198=EDGE_CURVE('',#219,#220,#162,.T.);
#199=EDGE_CURVE('',#218,#221,#163,.T.);
#200=EDGE_CURVE('',#214,#217,#164,.T.);
#201=EDGE_CURVE('',#215,#216,#165,.T.);
#202=EDGE_CURVE('',#220,#221,#21,.T.);
#203=EDGE_CURVE('',#218,#219,#22,.T.);
#204=EDGE_CURVE('',#216,#217,#23,.T.);
#205=EDGE_CURVE('',#214,#215,#24,.T.);
#206=VERTEX_POINT('',#362);
#207=VERTEX_POINT('',#363);
#208=VERTEX_POINT('',#364);
#209=VERTEX_POINT('',#365);
#210=VERTEX_POINT('',#366);
#211=VERTEX_POINT('',#367);
#212=VERTEX_POINT('',#368);
#213=VERTEX_POINT('',#369);
#214=VERTEX_POINT('',#391);
#215=VERTEX_POINT('',#392);
#216=VERTEX_POINT('',#393);
#217=VERTEX_POINT('',#394);
#218=VERTEX_POINT('',#395);
#219=VERTEX_POINT('',#396);
#220=VERTEX_POINT('',#397);
#221=VERTEX_POINT('',#398);
#222=PRODUCT_CATEGORY_RELATIONSHIP('','',#228,#225);
#223=PRODUCT_CATEGORY_RELATIONSHIP('','',#229,#226);
#224=PRODUCT_CATEGORY_RELATIONSHIP('','',#230,#227);
#225=PRODUCT_RELATED_PRODUCT_CATEGORY('detail','',(#248));
#226=PRODUCT_RELATED_PRODUCT_CATEGORY('detail','',(#249));
#227=PRODUCT_RELATED_PRODUCT_CATEGORY('detail','',(#250));
#228=PRODUCT_CATEGORY('part','');
#229=PRODUCT_CATEGORY('part','');
#230=PRODUCT_CATEGORY('part','');
#231=SHAPE_DEFINITION_REPRESENTATION(#234,#260);
#232=SHAPE_DEFINITION_REPRESENTATION(#235,#261);
#233=SHAPE_DEFINITION_REPRESENTATION(#237,#262);
#234=PRODUCT_DEFINITION_SHAPE('','Shape',#239);
#235=PRODUCT_DEFINITION_SHAPE('','Shape',#240);
#236=PRODUCT_DEFINITION_SHAPE('','',#27);
#237=PRODUCT_DEFINITION_SHAPE('','Shape',#241);
#238=PRODUCT_DEFINITION_SHAPE('','',#28);
#239=PRODUCT_DEFINITION('','',#242,#245);
#240=PRODUCT_DEFINITION('','',#243,#246);
#241=PRODUCT_DEFINITION('','',#244,#247);
#242=PRODUCT_DEFINITION_FORMATION('','',#248);
#243=PRODUCT_DEFINITION_FORMATION('','',#249);
#244=PRODUCT_DEFINITION_FORMATION('','',#250);
#245=PRODUCT_DEFINITION_CONTEXT('part definition',#257,'');
#246=PRODUCT_DEFINITION_CONTEXT('part definition',#258,'');
#247=PRODUCT_DEFINITION_CONTEXT('part definition',#259,'');
#248=PRODUCT('PZT_mirror_adapter','PZT_mirror_adapter','not specified',(#251));
#249=PRODUCT('','','not specified',(#252));
#250=PRODUCT('','','not specified',(#253));
#251=PRODUCT_CONTEXT('',#257,'mechanical');
#252=PRODUCT_CONTEXT('',#258,'mechanical');
#253=PRODUCT_CONTEXT('',#259,'mechanical');
#254=APPLICATION_PROTOCOL_DEFINITION('Draft International Standard',
'automotive_design',1997,#257);
#255=APPLICATION_PROTOCOL_DEFINITION('Draft International Standard',
'automotive_design',1997,#258);
#256=APPLICATION_PROTOCOL_DEFINITION('Draft International Standard',
'automotive_design',1997,#259);
#257=APPLICATION_CONTEXT('automotive design');
#258=APPLICATION_CONTEXT('automotive design');
#259=APPLICATION_CONTEXT('automotive design');
#260=SHAPE_REPRESENTATION('PZT_mirror_adapter',(#263,#272,#289),#419);
#261=SHAPE_REPRESENTATION('',(#264),#420);
#262=SHAPE_REPRESENTATION('',(#273),#421);
#263=AXIS2_PLACEMENT_3D('',#360,#290,#291);
#264=AXIS2_PLACEMENT_3D('',#361,#292,#293);
#265=AXIS2_PLACEMENT_3D('',#382,#306,#307);
#266=AXIS2_PLACEMENT_3D('',#383,#308,#309);
#267=AXIS2_PLACEMENT_3D('',#384,#310,#311);
#268=AXIS2_PLACEMENT_3D('',#385,#312,#313);
#269=AXIS2_PLACEMENT_3D('',#386,#314,#315);
#270=AXIS2_PLACEMENT_3D('',#387,#316,#317);
#271=AXIS2_PLACEMENT_3D('',#388,#318,#319);
#272=AXIS2_PLACEMENT_3D('',#389,#320,#321);
#273=AXIS2_PLACEMENT_3D('',#390,#322,#323);
#274=AXIS2_PLACEMENT_3D('',#399,#324,#325);
#275=AXIS2_PLACEMENT_3D('',#400,#326,#327);
#276=AXIS2_PLACEMENT_3D('',#401,#328,#329);
#277=AXIS2_PLACEMENT_3D('',#402,#330,#331);
#278=AXIS2_PLACEMENT_3D('',#407,#336,#337);
#279=AXIS2_PLACEMENT_3D('',#408,#338,#339);
#280=AXIS2_PLACEMENT_3D('',#409,#340,#341);
#281=AXIS2_PLACEMENT_3D('',#410,#342,#343);
#282=AXIS2_PLACEMENT_3D('',#411,#344,#345);
#283=AXIS2_PLACEMENT_3D('',#412,#346,#347);
#284=AXIS2_PLACEMENT_3D('',#413,#348,#349);
#285=AXIS2_PLACEMENT_3D('',#414,#350,#351);
#286=AXIS2_PLACEMENT_3D('',#415,#352,#353);
#287=AXIS2_PLACEMENT_3D('',#416,#354,#355);
#288=AXIS2_PLACEMENT_3D('',#417,#356,#357);
#289=AXIS2_PLACEMENT_3D('',#418,#358,#359);
#290=DIRECTION('',(0.,0.,1.));
#291=DIRECTION('',(1.,0.,0.));
#292=DIRECTION('',(0.,0.,1.));
#293=DIRECTION('',(1.,0.,0.));
#294=DIRECTION('',(0.,1.,0.));
#295=DIRECTION('',(0.,0.,1.));
#296=DIRECTION('',(0.,-1.,0.));
#297=DIRECTION('',(0.,0.,-1.));
#298=DIRECTION('',(0.,1.,0.));
#299=DIRECTION('',(0.,0.,1.));
#300=DIRECTION('',(0.,-1.,0.));
#301=DIRECTION('',(0.,0.,-1.));
#302=DIRECTION('',(1.,0.,0.));
#303=DIRECTION('',(1.,0.,0.));
#304=DIRECTION('',(1.,0.,0.));
#305=DIRECTION('',(1.,0.,0.));
#306=DIRECTION('',(1.,0.,0.));
#307=DIRECTION('',(0.,0.,-1.));
#308=DIRECTION('',(-1.,0.,0.));
#309=DIRECTION('',(0.,0.,1.));
#310=DIRECTION('',(0.,0.,1.));
#311=DIRECTION('',(0.,1.,0.));
#312=DIRECTION('',(0.,-1.,0.));
#313=DIRECTION('',(0.,0.,1.));
#314=DIRECTION('',(0.,0.,-1.));
#315=DIRECTION('',(0.,-1.,0.));
#316=DIRECTION('',(0.,1.,0.));
#317=DIRECTION('',(0.,0.,-1.));
#318=DIRECTION('',(0.,0.,1.));
#319=DIRECTION('',(1.,0.,0.));
#320=DIRECTION('',(0.,0.,1.));
#321=DIRECTION('',(1.,0.,0.));
#322=DIRECTION('',(0.,0.,1.));
#323=DIRECTION('',(1.,0.,0.));
#324=DIRECTION('',(-1.,0.,0.));
#325=DIRECTION('',(0.,1.,0.));
#326=DIRECTION('',(1.,0.,0.));
#327=DIRECTION('',(0.,-1.,0.));
#328=DIRECTION('',(1.,0.,0.));
#329=DIRECTION('',(0.,-1.,0.));
#330=DIRECTION('',(-1.,0.,0.));
#331=DIRECTION('',(0.,1.,0.));
#332=DIRECTION('',(-1.,0.,0.));
#333=DIRECTION('',(-1.,0.,0.));
#334=DIRECTION('',(1.,0.,0.));
#335=DIRECTION('',(1.,0.,0.));
#336=DIRECTION('',(-1.,0.,0.));
#337=DIRECTION('',(0.,-1.,0.));
#338=DIRECTION('',(1.,0.,0.));
#339=DIRECTION('',(0.,1.,0.));
#340=DIRECTION('',(1.,0.,0.));
#341=DIRECTION('',(0.,1.,0.));
#342=DIRECTION('',(-1.,0.,0.));
#343=DIRECTION('',(0.,-1.,0.));
#344=DIRECTION('',(1.,0.,0.));
#345=DIRECTION('',(0.,-1.,0.));
#346=DIRECTION('',(1.,0.,0.));
#347=DIRECTION('',(0.,-1.,0.));
#348=DIRECTION('',(-1.,0.,0.));
#349=DIRECTION('',(0.,0.,1.));
#350=DIRECTION('',(1.,0.,0.));
#351=DIRECTION('',(0.,1.,0.));
#352=DIRECTION('',(1.,0.,0.));
#353=DIRECTION('',(0.,0.,-1.));
#354=DIRECTION('',(1.,0.,0.));
#355=DIRECTION('',(0.,1.,0.));
#356=DIRECTION('',(0.,0.,1.));
#357=DIRECTION('',(1.,0.,0.));
#358=DIRECTION('',(0.,0.,1.));
#359=DIRECTION('',(1.,0.,0.));
#360=CARTESIAN_POINT('',(0.,0.,0.));
#361=CARTESIAN_POINT('',(0.,0.,0.));
#362=CARTESIAN_POINT('',(20.,2.5,-2.5));
#363=CARTESIAN_POINT('',(20.,-2.5,-2.5));
#364=CARTESIAN_POINT('',(20.,2.5,2.5));
#365=CARTESIAN_POINT('',(20.,-2.5,2.5));
#366=CARTESIAN_POINT('',(23.,2.5,-2.5));
#367=CARTESIAN_POINT('',(23.,-2.5,-2.5));
#368=CARTESIAN_POINT('',(23.,2.5,2.5));
#369=CARTESIAN_POINT('',(23.,-2.5,2.5));
#370=CARTESIAN_POINT('',(23.,-2.5,2.5));
#371=CARTESIAN_POINT('',(23.,-2.5,-2.5));
#372=CARTESIAN_POINT('',(23.,2.5,-2.5));
#373=CARTESIAN_POINT('',(23.,2.5,2.5));
#374=CARTESIAN_POINT('',(20.,-2.5,2.5));
#375=CARTESIAN_POINT('',(20.,-2.5,-2.5));
#376=CARTESIAN_POINT('',(20.,2.5,-2.5));
#377=CARTESIAN_POINT('',(20.,2.5,2.5));
#378=CARTESIAN_POINT('',(20.,-2.5,2.5));
#379=CARTESIAN_POINT('',(20.,-2.5,-2.5));
#380=CARTESIAN_POINT('',(20.,2.5,-2.5));
#381=CARTESIAN_POINT('',(20.,2.5,2.5));
#382=CARTESIAN_POINT('',(23.,-2.55,2.55));
#383=CARTESIAN_POINT('',(20.,-2.55,-2.55));
#384=CARTESIAN_POINT('',(23.05,-2.55,2.5));
#385=CARTESIAN_POINT('',(23.05,-2.5,-2.55));
#386=CARTESIAN_POINT('',(23.05,2.55,-2.5));
#387=CARTESIAN_POINT('',(23.05,2.5,2.55));
#388=CARTESIAN_POINT('',(0.,0.,0.));
#389=CARTESIAN_POINT('',(0.,0.,0.));
#390=CARTESIAN_POINT('',(0.,0.,0.));
#391=CARTESIAN_POINT('',(0.,-12.7,0.));
#392=CARTESIAN_POINT('',(0.,12.7,0.));
#393=CARTESIAN_POINT('',(6.,12.7,0.));
#394=CARTESIAN_POINT('',(6.,-12.7,0.));
#395=CARTESIAN_POINT('',(6.,5.,0.));
#396=CARTESIAN_POINT('',(6.,-5.,0.));
#397=CARTESIAN_POINT('',(0.,-5.,0.));
#398=CARTESIAN_POINT('',(0.,5.,0.));
#399=CARTESIAN_POINT('',(0.,0.,0.));
#400=CARTESIAN_POINT('',(6.,0.,0.));
#401=CARTESIAN_POINT('',(6.,0.,0.));
#402=CARTESIAN_POINT('',(0.,0.,0.));
#403=CARTESIAN_POINT('',(6.,-5.,0.));
#404=CARTESIAN_POINT('',(6.,5.,0.));
#405=CARTESIAN_POINT('',(0.,-12.7,0.));
#406=CARTESIAN_POINT('',(0.,12.7,0.));
#407=CARTESIAN_POINT('',(0.,0.,0.));
#408=CARTESIAN_POINT('',(6.,0.,0.));
#409=CARTESIAN_POINT('',(6.,0.,0.));
#410=CARTESIAN_POINT('',(0.,0.,0.));
#411=CARTESIAN_POINT('',(6.,0.,0.));
#412=CARTESIAN_POINT('',(0.,0.,0.));
#413=CARTESIAN_POINT('',(0.,-12.954,-12.954));
#414=CARTESIAN_POINT('',(6.,0.,0.));
#415=CARTESIAN_POINT('',(6.,-12.954,12.954));
#416=CARTESIAN_POINT('',(0.,0.,0.));
#417=CARTESIAN_POINT('',(0.,0.,0.));
#418=CARTESIAN_POINT('',(0.,0.,0.));
#419=(
GEOMETRIC_REPRESENTATION_CONTEXT(3)
GLOBAL_UNCERTAINTY_ASSIGNED_CONTEXT((#423))
GLOBAL_UNIT_ASSIGNED_CONTEXT((#435,#431,#427))
REPRESENTATION_CONTEXT('','')
);
#420=(
GEOMETRIC_REPRESENTATION_CONTEXT(3)
GLOBAL_UNCERTAINTY_ASSIGNED_CONTEXT((#424))
GLOBAL_UNIT_ASSIGNED_CONTEXT((#436,#432,#428))
REPRESENTATION_CONTEXT('','')
);
#421=(
GEOMETRIC_REPRESENTATION_CONTEXT(3)
GLOBAL_UNCERTAINTY_ASSIGNED_CONTEXT((#425))
GLOBAL_UNIT_ASSIGNED_CONTEXT((#437,#433,#429))
REPRESENTATION_CONTEXT('','')
);
#422=(
GEOMETRIC_REPRESENTATION_CONTEXT(3)
GLOBAL_UNCERTAINTY_ASSIGNED_CONTEXT((#426))
GLOBAL_UNIT_ASSIGNED_CONTEXT((#438,#434,#430))
REPRESENTATION_CONTEXT('','')
);
#423=UNCERTAINTY_MEASURE_WITH_UNIT(LENGTH_MEASURE(0.001),#435,'TOL_CRV',
'CONFUSED CURVE UNCERTAINTY');
#424=UNCERTAINTY_MEASURE_WITH_UNIT(LENGTH_MEASURE(0.001),#436,'TOL_CRV',
'CONFUSED CURVE UNCERTAINTY');
#425=UNCERTAINTY_MEASURE_WITH_UNIT(LENGTH_MEASURE(0.001),#437,'TOL_CRV',
'CONFUSED CURVE UNCERTAINTY');
#426=UNCERTAINTY_MEASURE_WITH_UNIT(LENGTH_MEASURE(0.001),#438,'TOL_CRV',
'CONFUSED CURVE UNCERTAINTY');
#427=(
NAMED_UNIT(*)
SI_UNIT($,.STERADIAN.)
SOLID_ANGLE_UNIT()
);
#428=(
NAMED_UNIT(*)
SI_UNIT($,.STERADIAN.)
SOLID_ANGLE_UNIT()
);
#429=(
NAMED_UNIT(*)
SI_UNIT($,.STERADIAN.)
SOLID_ANGLE_UNIT()
);
#430=(
NAMED_UNIT(*)
SI_UNIT($,.STERADIAN.)
SOLID_ANGLE_UNIT()
);
#431=(
NAMED_UNIT(*)
PLANE_ANGLE_UNIT()
SI_UNIT($,.RADIAN.)
);
#432=(
NAMED_UNIT(*)
PLANE_ANGLE_UNIT()
SI_UNIT($,.RADIAN.)
);
#433=(
NAMED_UNIT(*)
PLANE_ANGLE_UNIT()
SI_UNIT($,.RADIAN.)
);
#434=(
NAMED_UNIT(*)
PLANE_ANGLE_UNIT()
SI_UNIT($,.RADIAN.)
);
#435=(
LENGTH_UNIT()
NAMED_UNIT(*)
SI_UNIT(.MILLI.,.METRE.)
);
#436=(
LENGTH_UNIT()
NAMED_UNIT(*)
SI_UNIT(.MILLI.,.METRE.)
);
#437=(
LENGTH_UNIT()
NAMED_UNIT(*)
SI_UNIT(.MILLI.,.METRE.)
);
#438=(
LENGTH_UNIT()
NAMED_UNIT(*)
SI_UNIT(.MILLI.,.METRE.)
);
ENDSEC;
END-ISO-10303-21;
