  0
SECTION
  2
HEADER
  9
$ACADVER
  1
AC1027
  9
$ACADMAINTVER
 70
    81
  9
$DWGCODEPAGE
  3
ANSI_932
  9
$LASTSAVEDBY
  1
Kazn
  9
$REQUIREDVERSIONS
160
                 0
  9
$INSBASE
 10
0.0
 20
0.0
 30
0.0
  9
$EXTMIN
 10
-106.5806914101975
 20
-50.0
 30
-50.0
  9
$EXTMAX
 10
45.62411526651285
 20
50.0
 30
50.0
  9
$LIMMIN
 10
0.0
 20
0.0
  9
$LIMMAX
 10
12.0
 20
9.0
  9
$ORTHOMODE
 70
     0
  9
$REGENMODE
 70
     1
  9
$FILLMODE
 70
     1
  9
$QTEXTMODE
 70
     0
  9
$MIRRTEXT
 70
     0
  9
$LTSCALE
 40
1.0
  9
$ATTMODE
 70
     1
  9
$TEXTSIZE
 40
0.2
  9
$TRACEWID
 40
0.05
  9
$TEXTSTYLE
  7
Standard
  9
$CLAYER
  8
0
  9
$CELTYPE
  6
Continuous
  9
$CECOLOR
 62
   256
  9
$CELTSCALE
 40
1.0
  9
$DISPSILH
 70
     0
  9
$DIMSCALE
 40
1.0
  9
$DIMASZ
 40
0.18
  9
$DIMEXO
 40
0.0625
  9
$DIMDLI
 40
0.38
  9
$DIMRND
 40
0.0
  9
$DIMDLE
 40
0.0
  9
$DIMEXE
 40
0.18
  9
$DIMTP
 40
0.0
  9
$DIMTM
 40
0.0
  9
$DIMTXT
 40
0.18
  9
$DIMCEN
 40
0.09
  9
$DIMTSZ
 40
0.0
  9
$DIMTOL
 70
     0
  9
$DIMLIM
 70
     0
  9
$DIMTIH
 70
     1
  9
$DIMTOH
 70
     1
  9
$DIMSE1
 70
     0
  9
$DIMSE2
 70
     0
  9
$DIMTAD
 70
     0
  9
$DIMZIN
 70
     0
  9
$DIMBLK
  1

  9
$DIMASO
 70
     1
  9
$DIMSHO
 70
     1
  9
$DIMPOST
  1

  9
$DIMAPOST
  1

  9
$DIMALT
 70
     0
  9
$DIMALTD
 70
     2
  9
$DIMALTF
 40
25.4
  9
$DIMLFAC
 40
1.0
  9
$DIMTOFL
 70
     0
  9
$DIMTVP
 40
0.0
  9
$DIMTIX
 70
     0
  9
$DIMSOXD
 70
     0
  9
$DIMSAH
 70
     0
  9
$DIMBLK1
  1

  9
$DIMBLK2
  1

  9
$DIMSTYLE
  2
Standard
  9
$DIMCLRD
 70
     0
  9
$DIMCLRE
 70
     0
  9
$DIMCLRT
 70
     0
  9
$DIMTFAC
 40
1.0
  9
$DIMGAP
 40
0.09
  9
$DIMJUST
 70
     0
  9
$DIMSD1
 70
     0
  9
$DIMSD2
 70
     0
  9
$DIMTOLJ
 70
     1
  9
$DIMTZIN
 70
     0
  9
$DIMALTZ
 70
     0
  9
$DIMALTTZ
 70
     0
  9
$DIMUPT
 70
     0
  9
$DIMDEC
 70
     4
  9
$DIMTDEC
 70
     4
  9
$DIMALTU
 70
     2
  9
$DIMALTTD
 70
     2
  9
$DIMTXSTY
  7
Standard
  9
$DIMAUNIT
 70
     0
  9
$DIMADEC
 70
     0
  9
$DIMALTRND
 40
0.0
  9
$DIMAZIN
 70
     0
  9
$DIMDSEP
 70
    46
  9
$DIMATFIT
 70
     3
  9
$DIMFRAC
 70
     0
  9
$DIMLDRBLK
  1

  9
$DIMLUNIT
 70
     2
  9
$DIMLWD
 70
    -2
  9
$DIMLWE
 70
    -2
  9
$DIMTMOVE
 70
     0
  9
$DIMFXL
 40
1.0
  9
$DIMFXLON
 70
     0
  9
$DIMJOGANG
 40
0.7853981633974483
  9
$DIMTFILL
 70
     0
  9
$DIMTFILLCLR
 70
     0
  9
$DIMARCSYM
 70
     0
  9
$DIMLTYPE
  6

  9
$DIMLTEX1
  6

  9
$DIMLTEX2
  6

  9
$DIMTXTDIRECTION
 70
     0
  9
$LUNITS
 70
     2
  9
$LUPREC
 70
     4
  9
$SKETCHINC
 40
0.1
  9
$FILLETRAD
 40
0.0
  9
$AUNITS
 70
     0
  9
$AUPREC
 70
     0
  9
$MENU
  1
.
  9
$ELEVATION
 40
0.0
  9
$PELEVATION
 40
0.0
  9
$THICKNESS
 40
0.0
  9
$LIMCHECK
 70
     0
  9
$CHAMFERA
 40
0.0
  9
$CHAMFERB
 40
0.0
  9
$CHAMFERC
 40
0.0
  9
$CHAMFERD
 40
0.0
  9
$SKPOLY
 70
     0
  9
$TDCREATE
 40
2457285.532335093
  9
$TDUCREATE
 40
2457285.157335093
  9
$TDUPDATE
 40
2457414.512113171
  9
$TDUUPDATE
 40
2457414.137113171
  9
$TDINDWG
 40
0.1070262037
  9
$TDUSRTIMER
 40
0.1070262037
  9
$USRTIMER
 70
     1
  9
$ANGBASE
 50
0.0
  9
$ANGDIR
 70
     0
  9
$PDMODE
 70
     0
  9
$PDSIZE
 40
0.0
  9
$PLINEWID
 40
0.0
  9
$SPLFRAME
 70
     0
  9
$SPLINETYPE
 70
     6
  9
$SPLINESEGS
 70
     8
  9
$HANDSEED
  5
250
  9
$SURFTAB1
 70
     6
  9
$SURFTAB2
 70
     6
  9
$SURFTYPE
 70
     6
  9
$SURFU
 70
     6
  9
$SURFV
 70
     6
  9
$UCSBASE
  2

  9
$UCSNAME
  2

  9
$UCSORG
 10
-14.97183648697205
 20
-0.0000000000000082
 30
-16.30974866560269
  9
$UCSXDIR
 10
1.0
 20
0.0
 30
0.0
  9
$UCSYDIR
 10
0.0
 20
0.0000000000000005
 30
1.0
  9
$UCSORTHOREF
  2

  9
$UCSORTHOVIEW
 70
     0
  9
$UCSORGTOP
 10
0.0
 20
0.0
 30
0.0
  9
$UCSORGBOTTOM
 10
0.0
 20
0.0
 30
0.0
  9
$UCSORGLEFT
 10
0.0
 20
0.0
 30
0.0
  9
$UCSORGRIGHT
 10
0.0
 20
0.0
 30
0.0
  9
$UCSORGFRONT
 10
0.0
 20
0.0
 30
0.0
  9
$UCSORGBACK
 10
0.0
 20
0.0
 30
0.0
  9
$PUCSBASE
  2

  9
$PUCSNAME
  2

  9
$PUCSORG
 10
0.0
 20
0.0
 30
0.0
  9
$PUCSXDIR
 10
1.0
 20
0.0
 30
0.0
  9
$PUCSYDIR
 10
0.0
 20
1.0
 30
0.0
  9
$PUCSORTHOREF
  2

  9
$PUCSORTHOVIEW
 70
     0
  9
$PUCSORGTOP
 10
0.0
 20
0.0
 30
0.0
  9
$PUCSORGBOTTOM
 10
0.0
 20
0.0
 30
0.0
  9
$PUCSORGLEFT
 10
0.0
 20
0.0
 30
0.0
  9
$PUCSORGRIGHT
 10
0.0
 20
0.0
 30
0.0
  9
$PUCSORGFRONT
 10
0.0
 20
0.0
 30
0.0
  9
$PUCSORGBACK
 10
0.0
 20
0.0
 30
0.0
  9
$USERI1
 70
     0
  9
$USERI2
 70
     0
  9
$USERI3
 70
     0
  9
$USERI4
 70
     0
  9
$USERI5
 70
     0
  9
$USERR1
 40
0.0
  9
$USERR2
 40
0.0
  9
$USERR3
 40
0.0
  9
$USERR4
 40
0.0
  9
$USERR5
 40
0.0
  9
$WORLDVIEW
 70
     0
  9
$SHADEDGE
 70
     3
  9
$SHADEDIF
 70
    70
  9
$TILEMODE
 70
     1
  9
$MAXACTVP
 70
    64
  9
$PINSBASE
 10
0.0
 20
0.0
 30
0.0
  9
$PLIMCHECK
 70
     0
  9
$PEXTMIN
 10
1.000000000000000E+20
 20
1.000000000000000E+20
 30
1.000000000000000E+20
  9
$PEXTMAX
 10
-1.000000000000000E+20
 20
-1.000000000000000E+20
 30
-1.000000000000000E+20
  9
$PLIMMIN
 10
0.0
 20
0.0
  9
$PLIMMAX
 10
12.0
 20
9.0
  9
$UNITMODE
 70
     0
  9
$VISRETAIN
 70
     1
  9
$PLINEGEN
 70
     0
  9
$PSLTSCALE
 70
     1
  9
$TREEDEPTH
 70
  3020
  9
$CMLSTYLE
  2
Standard
  9
$CMLJUST
 70
     0
  9
$CMLSCALE
 40
1.0
  9
$PROXYGRAPHICS
 70
     1
  9
$MEASUREMENT
 70
     0
  9
$CELWEIGHT
370
    -1
  9
$ENDCAPS
280
     0
  9
$JOINSTYLE
280
     0
  9
$LWDISPLAY
290
     0
  9
$INSUNITS
 70
     0
  9
$HYPERLINKBASE
  1

  9
$STYLESHEET
  1

  9
$XEDIT
290
     1
  9
$CEPSNTYPE
380
     0
  9
$PSTYLEMODE
290
     1
  9
$FINGERPRINTGUID
  2
{24A8E60D-B8A6-4557-A1E2-D9867374E8B8}
  9
$VERSIONGUID
  2
{0326E5A2-76C6-4DB0-9D92-6AFAB7FDFD98}
  9
$EXTNAMES
290
     1
  9
$PSVPSCALE
 40
0.0
  9
$OLESTARTUP
290
     0
  9
$SORTENTS
280
   127
  9
$INDEXCTL
280
     0
  9
$HIDETEXT
280
     0
  9
$XCLIPFRAME
280
     2
  9
$HALOGAP
280
     0
  9
$OBSCOLOR
 70
   257
  9
$OBSLTYPE
280
     0
  9
$INTERSECTIONDISPLAY
280
     0
  9
$INTERSECTIONCOLOR
 70
   257
  9
$DIMASSOC
280
     1
  9
$PROJECTNAME
  1

  9
$CAMERADISPLAY
290
     0
  9
$LENSLENGTH
 40
50.0
  9
$CAMERAHEIGHT
 40
0.0
  9
$STEPSPERSEC
 40
2.0
  9
$STEPSIZE
 40
6.0
  9
$3DDWFPREC
 40
2.0
  9
$PSOLWIDTH
 40
0.25
  9
$PSOLHEIGHT
 40
4.0
  9
$LOFTANG1
 40
1.570796326794896
  9
$LOFTANG2
 40
1.570796326794896
  9
$LOFTMAG1
 40
0.0
  9
$LOFTMAG2
 40
0.0
  9
$LOFTPARAM
 70
     7
  9
$LOFTNORMALS
280
     1
  9
$LATITUDE
 40
37.795
  9
$LONGITUDE
 40
-122.394
  9
$NORTHDIRECTION
 40
0.0
  9
$TIMEZONE
 70
 -8000
  9
$LIGHTGLYPHDISPLAY
280
     1
  9
$TILEMODELIGHTSYNCH
280
     1
  9
$CMATERIAL
347
11
  9
$SOLIDHIST
280
     0
  9
$SHOWHIST
280
     1
  9
$DWFFRAME
280
     2
  9
$DGNFRAME
280
     0
  9
$REALWORLDSCALE
290
     1
  9
$INTERFERECOLOR
 62
     1
  9
$INTERFEREOBJVS
345
33
  9
$INTERFEREVPVS
346
30
  9
$CSHADOW
280
     0
  9
$SHADOWPLANELOCATION
 40
0.0
  0
ENDSEC
  0
SECTION
  2
CLASSES
  0
CLASS
  1
ACDBDICTIONARYWDFLT
  2
AcDbDictionaryWithDefault
  3
ObjectDBX Classes
 90
        0
 91
        1
280
     0
281
     0
  0
CLASS
  1
MATERIAL
  2
AcDbMaterial
  3
ObjectDBX Classes
 90
     1153
 91
        3
280
     0
281
     0
  0
CLASS
  1
VISUALSTYLE
  2
AcDbVisualStyle
  3
ObjectDBX Classes
 90
     4095
 91
       24
280
     0
281
     0
  0
CLASS
  1
SCALE
  2
AcDbScale
  3
ObjectDBX Classes
 90
     1153
 91
       17
280
     0
281
     0
  0
CLASS
  1
TABLESTYLE
  2
AcDbTableStyle
  3
ObjectDBX Classes
 90
     4095
 91
        1
280
     0
281
     0
  0
CLASS
  1
MLEADERSTYLE
  2
AcDbMLeaderStyle
  3
ACDB_MLEADERSTYLE_CLASS
 90
     4095
 91
        1
280
     0
281
     0
  0
CLASS
  1
ACDBSECTIONVIEWSTYLE
  2
AcDbSectionViewStyle
  3
ObjectDBX Classes
 90
     1025
 91
        1
280
     0
281
     0
  0
CLASS
  1
ACDBDETAILVIEWSTYLE
  2
AcDbDetailViewStyle
  3
ObjectDBX Classes
 90
     1025
 91
        1
280
     0
281
     0
  0
CLASS
  1
SOLID_BACKGROUND
  2
AcDbSolidBackground
  3
SCENEOE
 90
     4095
 91
        0
280
     0
281
     0
  0
CLASS
  1
NPOCOLLECTION
  2
AcDbImpNonPersistentObjectsCollection
  3
ObjectDBX Classes
 90
     1153
 91
        0
280
     0
281
     0
  0
CLASS
  1
DICTIONARYVAR
  2
AcDbDictionaryVar
  3
ObjectDBX Classes
 90
        0
 91
        9
280
     0
281
     0
  0
CLASS
  1
CELLSTYLEMAP
  2
AcDbCellStyleMap
  3
ObjectDBX Classes
 90
     1152
 91
        1
280
     0
281
     0
  0
ENDSEC
  0
SECTION
  2
TABLES
  0
TABLE
  2
VPORT
  5
8
330
0
100
AcDbSymbolTable
 70
     1
  0
VPORT
  5
93
330
8
100
AcDbSymbolTableRecord
100
AcDbViewportTableRecord
  2
*Active
 70
     0
 10
0.0
 20
0.0
 11
1.0
 21
1.0
 12
50.23287053121987
 22
-1.691406044207592
 13
0.0
 23
0.0
 14
1.0
 24
1.0
 15
0.0
 25
0.0
 16
0.0000000000001528
 26
-686.4917494203782
 36
0.0000000000001524
 17
-30.47828674316406
 27
0.0
 37
0.0
 40
21.28845076319497
 41
2.438058748403575
 42
50.0
 43
0.0
 44
0.0
 50
0.0
 51
0.0000000000000223
 71
     0
 72
   100
 73
     1
 74
     1
 75
     0
 76
     0
 77
     0
 78
     0
281
     0
 65
     1
110
-14.97183648697205
120
-0.0000000000000082
130
-16.30974866560269
111
1.0
121
0.0
131
0.0
112
0.0
122
0.0000000000000005
132
1.0
 79
     0
146
0.0
348
2F
 60
     3
 61
     5
292
     1
282
     1
141
0.0
142
0.0
 63
   250
421
  3355443
1001
ACAD_NAV_VCDISPLAY
1070
     3
  0
ENDTAB
  0
TABLE
  2
LTYPE
  5
5
330
0
100
AcDbSymbolTable
 70
     1
  0
LTYPE
  5
5A
330
5
100
AcDbSymbolTableRecord
100
AcDbLinetypeTableRecord
  2
ByBlock
 70
     0
  3

 72
    65
 73
     0
 40
0.0
  0
LTYPE
  5
5B
330
5
100
AcDbSymbolTableRecord
100
AcDbLinetypeTableRecord
  2
ByLayer
 70
     0
  3

 72
    65
 73
     0
 40
0.0
  0
LTYPE
  5
5C
330
5
100
AcDbSymbolTableRecord
100
AcDbLinetypeTableRecord
  2
Continuous
 70
     0
  3
Solid line
 72
    65
 73
     0
 40
0.0
  0
ENDTAB
  0
TABLE
  2
LAYER
  5
2
102
{ACAD_XDICTIONARY
360
20A
102
}
330
0
100
AcDbSymbolTable
 70
    33
  0
LAYER
  5
54
102
{ACAD_XDICTIONARY
360
190
102
}
330
2
100
AcDbSymbolTableRecord
100
AcDbLayerTableRecord
  2
0
 70
     0
 62
     9
  6
Continuous
370
    -3
390
F
347
21
348
0
  0
LAYER
  5
73
102
{ACAD_XDICTIONARY
360
192
102
}
330
2
100
AcDbSymbolTableRecord
100
AcDbLayerTableRecord
  2
1
 70
     0
 62
     9
  6
Continuous
370
    -3
390
F
347
21
348
0
  0
LAYER
  5
74
102
{ACAD_XDICTIONARY
360
194
102
}
330
2
100
AcDbSymbolTableRecord
100
AcDbLayerTableRecord
  2
2
 70
     0
 62
     9
  6
Continuous
370
    -3
390
F
347
21
348
0
  0
LAYER
  5
75
102
{ACAD_XDICTIONARY
360
196
102
}
330
2
100
AcDbSymbolTableRecord
100
AcDbLayerTableRecord
  2
3
 70
     0
 62
     9
  6
Continuous
370
    -3
390
F
347
21
348
0
  0
LAYER
  5
76
102
{ACAD_XDICTIONARY
360
198
102
}
330
2
100
AcDbSymbolTableRecord
100
AcDbLayerTableRecord
  2
4
 70
     0
 62
     9
  6
Continuous
370
    -3
390
F
347
21
348
0
  0
LAYER
  5
77
102
{ACAD_XDICTIONARY
360
19A
102
}
330
2
100
AcDbSymbolTableRecord
100
AcDbLayerTableRecord
  2
5
 70
     0
 62
     9
  6
Continuous
370
    -3
390
F
347
21
348
0
  0
LAYER
  5
78
102
{ACAD_XDICTIONARY
360
19C
102
}
330
2
100
AcDbSymbolTableRecord
100
AcDbLayerTableRecord
  2
6
 70
     0
 62
     9
  6
Continuous
370
    -3
390
F
347
21
348
0
  0
LAYER
  5
79
102
{ACAD_XDICTIONARY
360
19E
102
}
330
2
100
AcDbSymbolTableRecord
100
AcDbLayerTableRecord
  2
7
 70
     0
 62
     9
  6
Continuous
370
    -3
390
F
347
21
348
0
  0
LAYER
  5
7A
102
{ACAD_XDICTIONARY
360
1A0
102
}
330
2
100
AcDbSymbolTableRecord
100
AcDbLayerTableRecord
  2
8
 70
     0
 62
     9
  6
Continuous
370
    -3
390
F
347
21
348
0
  0
LAYER
  5
7B
102
{ACAD_XDICTIONARY
360
1A2
102
}
330
2
100
AcDbSymbolTableRecord
100
AcDbLayerTableRecord
  2
9
 70
     0
 62
     9
  6
Continuous
370
    -3
390
F
347
21
348
0
  0
LAYER
  5
7C
102
{ACAD_XDICTIONARY
360
1A4
102
}
330
2
100
AcDbSymbolTableRecord
100
AcDbLayerTableRecord
  2
10
 70
     0
 62
     9
  6
Continuous
370
    -3
390
F
347
21
348
0
  0
LAYER
  5
7D
102
{ACAD_XDICTIONARY
360
1A6
102
}
330
2
100
AcDbSymbolTableRecord
100
AcDbLayerTableRecord
  2
11
 70
     0
 62
     9
  6
Continuous
370
    -3
390
F
347
21
348
0
  0
LAYER
  5
7E
102
{ACAD_XDICTIONARY
360
1A8
102
}
330
2
100
AcDbSymbolTableRecord
100
AcDbLayerTableRecord
  2
12
 70
     0
 62
     9
  6
Continuous
370
    -3
390
F
347
21
348
0
  0
LAYER
  5
7F
102
{ACAD_XDICTIONARY
360
1AA
102
}
330
2
100
AcDbSymbolTableRecord
100
AcDbLayerTableRecord
  2
13
 70
     0
 62
     9
  6
Continuous
370
    -3
390
F
347
21
348
0
  0
LAYER
  5
80
102
{ACAD_XDICTIONARY
360
1AC
102
}
330
2
100
AcDbSymbolTableRecord
100
AcDbLayerTableRecord
  2
14
 70
     0
 62
     9
  6
Continuous
370
    -3
390
F
347
21
348
0
  0
LAYER
  5
81
102
{ACAD_XDICTIONARY
360
1AE
102
}
330
2
100
AcDbSymbolTableRecord
100
AcDbLayerTableRecord
  2
15
 70
     0
 62
     9
  6
Continuous
370
    -3
390
F
347
21
348
0
  0
LAYER
  5
82
102
{ACAD_XDICTIONARY
360
1B0
102
}
330
2
100
AcDbSymbolTableRecord
100
AcDbLayerTableRecord
  2
16
 70
     0
 62
     9
  6
Continuous
370
    -3
390
F
347
21
348
0
  0
LAYER
  5
83
102
{ACAD_XDICTIONARY
360
1B2
102
}
330
2
100
AcDbSymbolTableRecord
100
AcDbLayerTableRecord
  2
17
 70
     0
 62
     9
  6
Continuous
370
    -3
390
F
347
21
348
0
  0
LAYER
  5
84
102
{ACAD_XDICTIONARY
360
1B4
102
}
330
2
100
AcDbSymbolTableRecord
100
AcDbLayerTableRecord
  2
18
 70
     0
 62
     9
  6
Continuous
370
    -3
390
F
347
21
348
0
  0
LAYER
  5
85
102
{ACAD_XDICTIONARY
360
1B6
102
}
330
2
100
AcDbSymbolTableRecord
100
AcDbLayerTableRecord
  2
19
 70
     0
 62
     9
  6
Continuous
370
    -3
390
F
347
21
348
0
  0
LAYER
  5
86
102
{ACAD_XDICTIONARY
360
1B8
102
}
330
2
100
AcDbSymbolTableRecord
100
AcDbLayerTableRecord
  2
20
 70
     0
 62
     9
  6
Continuous
370
    -3
390
F
347
21
348
0
  0
LAYER
  5
87
102
{ACAD_XDICTIONARY
360
1BA
102
}
330
2
100
AcDbSymbolTableRecord
100
AcDbLayerTableRecord
  2
21
 70
     0
 62
     9
  6
Continuous
370
    -3
390
F
347
21
348
0
  0
LAYER
  5
88
102
{ACAD_XDICTIONARY
360
1BC
102
}
330
2
100
AcDbSymbolTableRecord
100
AcDbLayerTableRecord
  2
22
 70
     0
 62
     9
  6
Continuous
370
    -3
390
F
347
21
348
0
  0
LAYER
  5
89
102
{ACAD_XDICTIONARY
360
1BE
102
}
330
2
100
AcDbSymbolTableRecord
100
AcDbLayerTableRecord
  2
23
 70
     0
 62
     9
  6
Continuous
370
    -3
390
F
347
21
348
0
  0
LAYER
  5
8A
102
{ACAD_XDICTIONARY
360
1C0
102
}
330
2
100
AcDbSymbolTableRecord
100
AcDbLayerTableRecord
  2
24
 70
     0
 62
     9
  6
Continuous
370
    -3
390
F
347
21
348
0
  0
LAYER
  5
8B
102
{ACAD_XDICTIONARY
360
1C2
102
}
330
2
100
AcDbSymbolTableRecord
100
AcDbLayerTableRecord
  2
25
 70
     0
 62
     9
  6
Continuous
370
    -3
390
F
347
21
348
0
  0
LAYER
  5
8C
102
{ACAD_XDICTIONARY
360
1C4
102
}
330
2
100
AcDbSymbolTableRecord
100
AcDbLayerTableRecord
  2
26
 70
     0
 62
     9
  6
Continuous
370
    -3
390
F
347
21
348
0
  0
LAYER
  5
8D
102
{ACAD_XDICTIONARY
360
1C6
102
}
330
2
100
AcDbSymbolTableRecord
100
AcDbLayerTableRecord
  2
27
 70
     0
 62
     9
  6
Continuous
370
    -3
390
F
347
21
348
0
  0
LAYER
  5
8E
102
{ACAD_XDICTIONARY
360
1C8
102
}
330
2
100
AcDbSymbolTableRecord
100
AcDbLayerTableRecord
  2
28
 70
     0
 62
     9
  6
Continuous
370
    -3
390
F
347
21
348
0
  0
LAYER
  5
8F
102
{ACAD_XDICTIONARY
360
1CA
102
}
330
2
100
AcDbSymbolTableRecord
100
AcDbLayerTableRecord
  2
29
 70
     0
 62
     9
  6
Continuous
370
    -3
390
F
347
21
348
0
  0
LAYER
  5
90
102
{ACAD_XDICTIONARY
360
1CC
102
}
330
2
100
AcDbSymbolTableRecord
100
AcDbLayerTableRecord
  2
30
 70
     0
 62
     9
  6
Continuous
370
    -3
390
F
347
21
348
0
  0
LAYER
  5
91
102
{ACAD_XDICTIONARY
360
1CE
102
}
330
2
100
AcDbSymbolTableRecord
100
AcDbLayerTableRecord
  2
31
 70
     0
 62
     9
  6
Continuous
370
    -3
390
F
347
21
348
0
  0
LAYER
  5
1E7
330
2
100
AcDbSymbolTableRecord
100
AcDbLayerTableRecord
  2
Defpoints
 70
     0
 62
     7
  6
Continuous
290
     0
370
    -3
390
F
347
21
348
0
  0
ENDTAB
  0
TABLE
  2
STYLE
  5
3
330
0
100
AcDbSymbolTable
 70
     2
  0
STYLE
  5
55
330
3
100
AcDbSymbolTableRecord
100
AcDbTextStyleTableRecord
  2
Standard
 70
     0
 40
0.0
 41
1.0
 50
0.0
 71
     0
 42
0.2
  3
txt
  4

  0
STYLE
  5
59
330
3
100
AcDbSymbolTableRecord
100
AcDbTextStyleTableRecord
  2
Annotative
 70
     0
 40
0.0
 41
1.0
 50
0.0
 71
     0
 42
0.2
  3
txt
  4

1001
AcadAnnotative
1000
AnnotativeData
1002
{
1070
     1
1070
     1
1002
}
  0
ENDTAB
  0
TABLE
  2
VIEW
  5
6
330
0
100
AcDbSymbolTable
 70
     0
  0
ENDTAB
  0
TABLE
  2
UCS
  5
7
330
0
100
AcDbSymbolTable
 70
     0
  0
ENDTAB
  0
TABLE
  2
APPID
  5
9
330
0
100
AcDbSymbolTable
 70
     3
  0
APPID
  5
56
330
9
100
AcDbSymbolTableRecord
100
AcDbRegAppTableRecord
  2
ACAD
 70
     0
  0
APPID
  5
5D
330
9
100
AcDbSymbolTableRecord
100
AcDbRegAppTableRecord
  2
AcadAnnotative
 70
     0
  0
APPID
  5
1D0
330
9
100
AcDbSymbolTableRecord
100
AcDbRegAppTableRecord
  2
ACAD_NAV_VCDISPLAY
 70
     0
  0
ENDTAB
  0
TABLE
  2
DIMSTYLE
  5
A
330
0
100
AcDbSymbolTable
 70
     2
100
AcDbDimStyleTable
 71
     1
340
57
  0
DIMSTYLE
105
57
330
A
100
AcDbSymbolTableRecord
100
AcDbDimStyleTableRecord
  2
Standard
 70
     0
340
55
  0
DIMSTYLE
105
58
330
A
100
AcDbSymbolTableRecord
100
AcDbDimStyleTableRecord
  2
Annotative
 70
     0
340
55
1001
AcadAnnotative
1000
AnnotativeData
1002
{
1070
     1
1070
     1
1002
}
  0
ENDTAB
  0
TABLE
  2
BLOCK_RECORD
  5
1
330
0
100
AcDbSymbolTable
 70
     4
  0
BLOCK_RECORD
  5
6F
330
1
100
AcDbSymbolTableRecord
100
AcDbBlockTableRecord
  2
*Model_Space
340
72
 70
     0
280
     1
281
     0
  0
BLOCK_RECORD
  5
6B
330
1
100
AcDbSymbolTableRecord
100
AcDbBlockTableRecord
  2
*Paper_Space
340
6E
 70
     0
280
     1
281
     0
  0
BLOCK_RECORD
  5
94
330
1
100
AcDbSymbolTableRecord
100
AcDbBlockTableRecord
  2
LENS_1
340
0
102
{BLKREFS
331
138
102
}
 70
     0
280
     1
281
     0
  0
BLOCK_RECORD
  5
E7
330
1
100
AcDbSymbolTableRecord
100
AcDbBlockTableRecord
  2
LENS_5
340
0
102
{BLKREFS
331
15B
102
}
 70
     0
280
     1
281
     0
  0
BLOCK_RECORD
  5
226
330
1
100
AcDbSymbolTableRecord
100
AcDbBlockTableRecord
  2
*D3
340
0
 70
     0
280
     1
281
     0
  0
ENDTAB
  0
ENDSEC
  0
SECTION
  2
BLOCKS
  0
BLOCK
  5
70
330
6F
100
AcDbEntity
  8
0
100
AcDbBlockBegin
  2
*Model_Space
 70
     0
 10
0.0
 20
0.0
 30
0.0
  3
*Model_Space
  1

  0
ENDBLK
  5
71
330
6F
100
AcDbEntity
  8
0
100
AcDbBlockEnd
  0
BLOCK
  5
6C
330
6B
100
AcDbEntity
 67
     1
  8
0
100
AcDbBlockBegin
  2
*Paper_Space
 70
     0
 10
0.0
 20
0.0
 30
0.0
  3
*Paper_Space
  1

  0
ENDBLK
  5
6D
330
6B
100
AcDbEntity
 67
     1
  8
0
100
AcDbBlockEnd
  0
BLOCK
  5
95
330
94
100
AcDbEntity
  8
0
100
AcDbBlockBegin
  2
LENS_1
 70
     0
 10
0.0
 20
0.0
 30
0.0
  3
LENS_1
  1

  0
POLYLINE
  5
96
330
94
100
AcDbEntity
  8
0
 62
     9
100
AcDb3dPolyline
 66
     1
 10
0.0
 20
0.0
 30
0.0
 70
     8
  0
VERTEX
  5
97
330
96
100
AcDbEntity
  8
0
 62
     9
100
AcDbVertex
100
AcDb3dPolylineVertex
 10
2.0
 20
0.0
 30
-0.0978163188416872
 70
    32
  0
VERTEX
  5
98
330
96
100
AcDbEntity
  8
0
 62
     9
100
AcDbVertex
100
AcDb3dPolylineVertex
 10
2.0
 20
0.0
 30
40.0698415389835
 70
    32
  0
SEQEND
  5
99
330
96
100
AcDbEntity
  8
0
 62
     9
  0
POLYLINE
  5
9A
330
94
100
AcDbEntity
  8
0
 62
     9
100
AcDb3dPolyline
 66
     1
 10
0.0
 20
0.0
 30
0.0
 70
     8
  0
VERTEX
  5
9B
330
9A
100
AcDbEntity
  8
0
 62
     9
100
AcDbVertex
100
AcDb3dPolylineVertex
 10
2.0
 20
2.0
 30
40.0698415389835
 70
    32
  0
VERTEX
  5
9C
330
9A
100
AcDbEntity
  8
0
 62
     9
100
AcDbVertex
100
AcDb3dPolylineVertex
 10
2.0
 20
-2.0
 30
40.0698415389835
 70
    32
  0
SEQEND
  5
9D
330
9A
100
AcDbEntity
  8
0
 62
     9
  0
POLYLINE
  5
9E
330
94
100
AcDbEntity
  8
0
 62
     9
100
AcDb3dPolyline
 66
     1
 10
0.0
 20
0.0
 30
0.0
 70
     8
  0
VERTEX
  5
9F
330
9E
100
AcDbEntity
  8
0
 62
     9
100
AcDbVertex
100
AcDb3dPolylineVertex
 10
2.0
 20
-2.0
 30
40.0698415389835
 70
    32
  0
VERTEX
  5
A0
330
9E
100
AcDbEntity
  8
0
 62
     9
100
AcDbVertex
100
AcDb3dPolylineVertex
 10
2.0
 20
-2.0
 30
-0.0978163188416801
 70
    32
  0
SEQEND
  5
A1
330
9E
100
AcDbEntity
  8
0
 62
     9
  0
POLYLINE
  5
A2
330
94
100
AcDbEntity
  8
0
 62
     9
100
AcDb3dPolyline
 66
     1
 10
0.0
 20
0.0
 30
0.0
 70
     8
  0
VERTEX
  5
A3
330
A2
100
AcDbEntity
  8
0
 62
     9
100
AcDbVertex
100
AcDb3dPolylineVertex
 10
0.0
 20
-2.0
 30
0.0
 70
    32
  0
VERTEX
  5
A4
330
A2
100
AcDbEntity
  8
0
 62
     9
100
AcDbVertex
100
AcDb3dPolylineVertex
 10
0.0
 20
-2.0
 30
40.0
 70
    32
  0
SEQEND
  5
A5
330
A2
100
AcDbEntity
  8
0
 62
     9
  0
POLYLINE
  5
A6
330
94
100
AcDbEntity
  8
0
 62
     9
100
AcDb3dPolyline
 66
     1
 10
0.0
 20
0.0
 30
0.0
 70
     8
  0
VERTEX
  5
A7
330
A6
100
AcDbEntity
  8
0
 62
     9
100
AcDbVertex
100
AcDb3dPolylineVertex
 10
2.0
 20
-2.0
 30
40.0698415389835
 70
    32
  0
VERTEX
  5
A8
330
A6
100
AcDbEntity
  8
0
 62
     9
100
AcDbVertex
100
AcDb3dPolylineVertex
 10
-2.0
 20
-2.0
 30
39.93015846101649
 70
    32
  0
SEQEND
  5
A9
330
A6
100
AcDbEntity
  8
0
 62
     9
  0
POLYLINE
  5
AA
330
94
100
AcDbEntity
  8
0
 62
     9
100
AcDb3dPolyline
 66
     1
 10
0.0
 20
0.0
 30
0.0
 70
     8
  0
VERTEX
  5
AB
330
AA
100
AcDbEntity
  8
0
 62
     9
100
AcDbVertex
100
AcDb3dPolylineVertex
 10
-2.0
 20
-2.0
 30
39.93015846101649
 70
    32
  0
VERTEX
  5
AC
330
AA
100
AcDbEntity
  8
0
 62
     9
100
AcDbVertex
100
AcDb3dPolylineVertex
 10
-2.0
 20
-2.0
 30
0.0978163188416943
 70
    32
  0
SEQEND
  5
AD
330
AA
100
AcDbEntity
  8
0
 62
     9
  0
POLYLINE
  5
AE
330
94
100
AcDbEntity
  8
0
 62
     9
100
AcDb3dPolyline
 66
     1
 10
0.0
 20
0.0
 30
0.0
 70
     8
  0
VERTEX
  5
AF
330
AE
100
AcDbEntity
  8
0
 62
     9
100
AcDbVertex
100
AcDb3dPolylineVertex
 10
-1.999999999999999
 20
-0.0000000875042243
 30
0.09781631884169
 70
    32
  0
VERTEX
  5
B0
330
AE
100
AcDbEntity
  8
0
 62
     9
100
AcDbVertex
100
AcDb3dPolylineVertex
 10
2.0
 20
-0.0000000875042243
 30
-0.0978163188416901
 70
    32
  0
SEQEND
  5
B1
330
AE
100
AcDbEntity
  8
0
 62
     9
  0
POLYLINE
  5
B2
330
94
100
AcDbEntity
  8
0
 62
     9
100
AcDb3dPolyline
 66
     1
 10
0.0
 20
0.0
 30
0.0
 70
     8
  0
VERTEX
  5
B3
330
B2
100
AcDbEntity
  8
0
 62
     9
100
AcDbVertex
100
AcDb3dPolylineVertex
 10
0.0000000873997559
 20
2.0
 30
-0.0000000042745612
 70
    32
  0
VERTEX
  5
B4
330
B2
100
AcDbEntity
  8
0
 62
     9
100
AcDbVertex
100
AcDb3dPolylineVertex
 10
0.0000000873997559
 20
-2.0
 30
-0.0000000042745612
 70
    32
  0
SEQEND
  5
B5
330
B2
100
AcDbEntity
  8
0
 62
     9
  0
POLYLINE
  5
B6
330
94
100
AcDbEntity
  8
0
 62
     9
100
AcDb3dPolyline
 66
     1
 10
0.0
 20
0.0
 30
0.0
 70
     8
  0
VERTEX
  5
B7
330
B6
100
AcDbEntity
  8
0
 62
     9
100
AcDbVertex
100
AcDb3dPolylineVertex
 10
2.0
 20
-2.0
 30
-0.0978163188416896
 70
    32
  0
VERTEX
  5
B8
330
B6
100
AcDbEntity
  8
0
 62
     9
100
AcDbVertex
100
AcDb3dPolylineVertex
 10
-2.0
 20
-2.0
 30
0.0978163188416904
 70
    32
  0
SEQEND
  5
B9
330
B6
100
AcDbEntity
  8
0
 62
     9
  0
POLYLINE
  5
BA
330
94
100
AcDbEntity
  8
0
 62
     9
100
AcDb3dPolyline
 66
     1
 10
0.0
 20
0.0
 30
0.0
 70
     8
  0
VERTEX
  5
BB
330
BA
100
AcDbEntity
  8
0
 62
     9
100
AcDbVertex
100
AcDb3dPolylineVertex
 10
-2.0
 20
-2.0
 30
0.0978163188416889
 70
    32
  0
VERTEX
  5
BC
330
BA
100
AcDbEntity
  8
0
 62
     9
100
AcDbVertex
100
AcDb3dPolylineVertex
 10
-2.0
 20
2.0
 30
0.0978163188416889
 70
    32
  0
SEQEND
  5
BD
330
BA
100
AcDbEntity
  8
0
 62
     9
  0
POLYLINE
  5
BE
330
94
100
AcDbEntity
  8
0
 62
     9
100
AcDb3dPolyline
 66
     1
 10
0.0
 20
0.0
 30
0.0
 70
     8
  0
VERTEX
  5
BF
330
BE
100
AcDbEntity
  8
0
 62
     9
100
AcDbVertex
100
AcDb3dPolylineVertex
 10
-2.0
 20
2.0
 30
0.0978163188416904
 70
    32
  0
VERTEX
  5
C0
330
BE
100
AcDbEntity
  8
0
 62
     9
100
AcDbVertex
100
AcDb3dPolylineVertex
 10
2.0
 20
2.0
 30
-0.0978163188416896
 70
    32
  0
SEQEND
  5
C1
330
BE
100
AcDbEntity
  8
0
 62
     9
  0
POLYLINE
  5
C2
330
94
100
AcDbEntity
  8
0
 62
     9
100
AcDb3dPolyline
 66
     1
 10
0.0
 20
0.0
 30
0.0
 70
     8
  0
VERTEX
  5
C3
330
C2
100
AcDbEntity
  8
0
 62
     9
100
AcDbVertex
100
AcDb3dPolylineVertex
 10
2.0
 20
2.0
 30
-0.097816318841688
 70
    32
  0
VERTEX
  5
C4
330
C2
100
AcDbEntity
  8
0
 62
     9
100
AcDbVertex
100
AcDb3dPolylineVertex
 10
2.0
 20
-2.0
 30
-0.097816318841688
 70
    32
  0
SEQEND
  5
C5
330
C2
100
AcDbEntity
  8
0
 62
     9
  0
POLYLINE
  5
C6
330
94
100
AcDbEntity
  8
0
 62
     9
100
AcDb3dPolyline
 66
     1
 10
0.0
 20
0.0
 30
0.0
 70
     8
  0
VERTEX
  5
C7
330
C6
100
AcDbEntity
  8
0
 62
     9
100
AcDbVertex
100
AcDb3dPolylineVertex
 10
-2.0
 20
0.0
 30
39.93015846101649
 70
    32
  0
VERTEX
  5
C8
330
C6
100
AcDbEntity
  8
0
 62
     9
100
AcDbVertex
100
AcDb3dPolylineVertex
 10
-2.0
 20
0.0
 30
0.0978163188416872
 70
    32
  0
SEQEND
  5
C9
330
C6
100
AcDbEntity
  8
0
 62
     9
  0
POLYLINE
  5
CA
330
94
100
AcDbEntity
  8
0
 62
     9
100
AcDb3dPolyline
 66
     1
 10
0.0
 20
0.0
 30
0.0
 70
     8
  0
VERTEX
  5
CB
330
CA
100
AcDbEntity
  8
0
 62
     9
100
AcDbVertex
100
AcDb3dPolylineVertex
 10
-2.0
 20
-2.0
 30
39.93015846101649
 70
    32
  0
VERTEX
  5
CC
330
CA
100
AcDbEntity
  8
0
 62
     9
100
AcDbVertex
100
AcDb3dPolylineVertex
 10
-2.0
 20
2.0
 30
39.93015846101649
 70
    32
  0
SEQEND
  5
CD
330
CA
100
AcDbEntity
  8
0
 62
     9
  0
POLYLINE
  5
CE
330
94
100
AcDbEntity
  8
0
 62
     9
100
AcDb3dPolyline
 66
     1
 10
0.0
 20
0.0
 30
0.0
 70
     8
  0
VERTEX
  5
CF
330
CE
100
AcDbEntity
  8
0
 62
     9
100
AcDbVertex
100
AcDb3dPolylineVertex
 10
-2.0
 20
2.0
 30
39.93015846101649
 70
    32
  0
VERTEX
  5
D0
330
CE
100
AcDbEntity
  8
0
 62
     9
100
AcDbVertex
100
AcDb3dPolylineVertex
 10
-2.0
 20
2.0
 30
0.0978163188416943
 70
    32
  0
SEQEND
  5
D1
330
CE
100
AcDbEntity
  8
0
 62
     9
  0
POLYLINE
  5
D2
330
94
100
AcDbEntity
  8
0
 62
     9
100
AcDb3dPolyline
 66
     1
 10
0.0
 20
0.0
 30
0.0
 70
     8
  0
VERTEX
  5
D3
330
D2
100
AcDbEntity
  8
0
 62
     9
100
AcDbVertex
100
AcDb3dPolylineVertex
 10
0.0
 20
2.0
 30
40.0
 70
    32
  0
VERTEX
  5
D4
330
D2
100
AcDbEntity
  8
0
 62
     9
100
AcDbVertex
100
AcDb3dPolylineVertex
 10
0.0
 20
2.0
 30
0.0
 70
    32
  0
SEQEND
  5
D5
330
D2
100
AcDbEntity
  8
0
 62
     9
  0
POLYLINE
  5
D6
330
94
100
AcDbEntity
  8
0
 62
     9
100
AcDb3dPolyline
 66
     1
 10
0.0
 20
0.0
 30
0.0
 70
     8
  0
VERTEX
  5
D7
330
D6
100
AcDbEntity
  8
0
 62
     9
100
AcDbVertex
100
AcDb3dPolylineVertex
 10
-2.0
 20
2.0
 30
39.93015846101649
 70
    32
  0
VERTEX
  5
D8
330
D6
100
AcDbEntity
  8
0
 62
     9
100
AcDbVertex
100
AcDb3dPolylineVertex
 10
2.0
 20
2.0
 30
40.0698415389835
 70
    32
  0
SEQEND
  5
D9
330
D6
100
AcDbEntity
  8
0
 62
     9
  0
POLYLINE
  5
DA
330
94
100
AcDbEntity
  8
0
 62
     9
100
AcDb3dPolyline
 66
     1
 10
0.0
 20
0.0
 30
0.0
 70
     8
  0
VERTEX
  5
DB
330
DA
100
AcDbEntity
  8
0
 62
     9
100
AcDbVertex
100
AcDb3dPolylineVertex
 10
2.0
 20
2.0
 30
40.0698415389835
 70
    32
  0
VERTEX
  5
DC
330
DA
100
AcDbEntity
  8
0
 62
     9
100
AcDbVertex
100
AcDb3dPolylineVertex
 10
2.0
 20
2.0
 30
-0.0978163188416801
 70
    32
  0
SEQEND
  5
DD
330
DA
100
AcDbEntity
  8
0
 62
     9
  0
POLYLINE
  5
DE
330
94
100
AcDbEntity
  8
0
 62
     9
100
AcDb3dPolyline
 66
     1
 10
0.0
 20
0.0
 30
0.0
 70
     8
  0
VERTEX
  5
DF
330
DE
100
AcDbEntity
  8
0
 62
     9
100
AcDbVertex
100
AcDb3dPolylineVertex
 10
-2.0
 20
-0.000000108805394
 30
39.93015846101649
 70
    32
  0
VERTEX
  5
E0
330
DE
100
AcDbEntity
  8
0
 62
     9
100
AcDbVertex
100
AcDb3dPolylineVertex
 10
2.000000000000001
 20
-0.000000108805394
 30
40.0698415389835
 70
    32
  0
SEQEND
  5
E1
330
DE
100
AcDbEntity
  8
0
 62
     9
  0
POLYLINE
  5
E2
330
94
100
AcDbEntity
  8
0
 62
     9
100
AcDb3dPolyline
 66
     1
 10
0.0
 20
0.0
 30
0.0
 70
     8
  0
VERTEX
  5
E3
330
E2
100
AcDbEntity
  8
0
 62
     9
100
AcDbVertex
100
AcDb3dPolylineVertex
 10
-0.0000001087391128
 20
-2.0
 30
39.99999999620274
 70
    32
  0
VERTEX
  5
E4
330
E2
100
AcDbEntity
  8
0
 62
     9
100
AcDbVertex
100
AcDb3dPolylineVertex
 10
-0.0000001087391128
 20
2.0
 30
39.99999999620274
 70
    32
  0
SEQEND
  5
E5
330
E2
100
AcDbEntity
  8
0
 62
     9
  0
ENDBLK
  5
E6
330
94
100
AcDbEntity
  8
0
100
AcDbBlockEnd
  0
BLOCK
  5
E8
330
E7
100
AcDbEntity
  8
0
100
AcDbBlockBegin
  2
LENS_5
 70
     0
 10
0.0
 20
0.0
 30
0.0
  3
LENS_5
  1

  0
POLYLINE
  5
E9
330
E7
100
AcDbEntity
  8
0
 62
     9
100
AcDb3dPolyline
 66
     1
 10
0.0
 20
0.0
 30
0.0
 70
     8
  0
VERTEX
  5
EA
330
E9
100
AcDbEntity
  8
0
 62
     9
100
AcDbVertex
100
AcDb3dPolylineVertex
 10
-50.0
 20
0.0
 30
0.0
 70
    32
  0
VERTEX
  5
EB
330
E9
100
AcDbEntity
  8
0
 62
     9
100
AcDbVertex
100
AcDb3dPolylineVertex
 10
50.0
 20
0.0
 30
0.0
 70
    32
  0
SEQEND
  5
EC
330
E9
100
AcDbEntity
  8
0
 62
     9
  0
POLYLINE
  5
ED
330
E7
100
AcDbEntity
  8
0
 62
     9
100
AcDb3dPolyline
 66
     1
 10
0.0
 20
0.0
 30
0.0
 70
     8
  0
VERTEX
  5
EE
330
ED
100
AcDbEntity
  8
0
 62
     9
100
AcDbVertex
100
AcDb3dPolylineVertex
 10
0.0
 20
50.0
 30
0.0
 70
    32
  0
VERTEX
  5
EF
330
ED
100
AcDbEntity
  8
0
 62
     9
100
AcDbVertex
100
AcDb3dPolylineVertex
 10
0.0
 20
-50.0
 30
0.0
 70
    32
  0
SEQEND
  5
F0
330
ED
100
AcDbEntity
  8
0
 62
     9
  0
POLYLINE
  5
F1
330
E7
100
AcDbEntity
  8
0
 62
     9
100
AcDb3dPolyline
 66
     1
 10
0.0
 20
0.0
 30
0.0
 70
     8
  0
VERTEX
  5
F2
330
F1
100
AcDbEntity
  8
0
 62
     9
100
AcDbVertex
100
AcDb3dPolylineVertex
 10
-50.0
 20
0.0000000000000061
 30
0.0
 70
    32
  0
VERTEX
  5
F3
330
F1
100
AcDbEntity
  8
0
 62
     9
100
AcDbVertex
100
AcDb3dPolylineVertex
 10
-47.55282581475767
 20
15.45084971874737
 30
0.0
 70
    32
  0
VERTEX
  5
F4
330
F1
100
AcDbEntity
  8
0
 62
     9
100
AcDbVertex
100
AcDb3dPolylineVertex
 10
-40.45084971874735
 20
29.38926261462366
 30
0.0
 70
    32
  0
VERTEX
  5
F5
330
F1
100
AcDbEntity
  8
0
 62
     9
100
AcDbVertex
100
AcDb3dPolylineVertex
 10
-29.38926261462365
 20
40.45084971874737
 30
0.0
 70
    32
  0
VERTEX
  5
F6
330
F1
100
AcDbEntity
  8
0
 62
     9
100
AcDbVertex
100
AcDb3dPolylineVertex
 10
-15.45084971874737
 20
47.55282581475768
 30
0.0
 70
    32
  0
VERTEX
  5
F7
330
F1
100
AcDbEntity
  8
0
 62
     9
100
AcDbVertex
100
AcDb3dPolylineVertex
 10
0.0000000000000031
 20
50.0
 30
0.0
 70
    32
  0
VERTEX
  5
F8
330
F1
100
AcDbEntity
  8
0
 62
     9
100
AcDbVertex
100
AcDb3dPolylineVertex
 10
15.45084971874736
 20
47.55282581475768
 30
0.0
 70
    32
  0
VERTEX
  5
F9
330
F1
100
AcDbEntity
  8
0
 62
     9
100
AcDbVertex
100
AcDb3dPolylineVertex
 10
29.38926261462366
 20
40.45084971874737
 30
0.0
 70
    32
  0
VERTEX
  5
FA
330
F1
100
AcDbEntity
  8
0
 62
     9
100
AcDbVertex
100
AcDb3dPolylineVertex
 10
40.45084971874737
 20
29.38926261462366
 30
0.0
 70
    32
  0
VERTEX
  5
FB
330
F1
100
AcDbEntity
  8
0
 62
     9
100
AcDbVertex
100
AcDb3dPolylineVertex
 10
47.55282581475767
 20
15.45084971874737
 30
0.0
 70
    32
  0
VERTEX
  5
FC
330
F1
100
AcDbEntity
  8
0
 62
     9
100
AcDbVertex
100
AcDb3dPolylineVertex
 10
50.0
 20
0.0
 30
0.0
 70
    32
  0
VERTEX
  5
FD
330
F1
100
AcDbEntity
  8
0
 62
     9
100
AcDbVertex
100
AcDb3dPolylineVertex
 10
47.55282581475767
 20
-15.45084971874737
 30
0.0
 70
    32
  0
VERTEX
  5
FE
330
F1
100
AcDbEntity
  8
0
 62
     9
100
AcDbVertex
100
AcDb3dPolylineVertex
 10
40.45084971874739
 20
-29.38926261462365
 30
0.0
 70
    32
  0
VERTEX
  5
FF
330
F1
100
AcDbEntity
  8
0
 62
     9
100
AcDbVertex
100
AcDb3dPolylineVertex
 10
29.38926261462366
 20
-40.45084971874737
 30
0.0
 70
    32
  0
VERTEX
  5
100
330
F1
100
AcDbEntity
  8
0
 62
     9
100
AcDbVertex
100
AcDb3dPolylineVertex
 10
15.45084971874737
 20
-47.55282581475767
 30
0.0
 70
    32
  0
VERTEX
  5
101
330
F1
100
AcDbEntity
  8
0
 62
     9
100
AcDbVertex
100
AcDb3dPolylineVertex
 10
0.0000000000000031
 20
-50.0
 30
0.0
 70
    32
  0
VERTEX
  5
102
330
F1
100
AcDbEntity
  8
0
 62
     9
100
AcDbVertex
100
AcDb3dPolylineVertex
 10
-15.45084971874737
 20
-47.55282581475768
 30
0.0
 70
    32
  0
VERTEX
  5
103
330
F1
100
AcDbEntity
  8
0
 62
     9
100
AcDbVertex
100
AcDb3dPolylineVertex
 10
-29.38926261462365
 20
-40.45084971874737
 30
0.0
 70
    32
  0
VERTEX
  5
104
330
F1
100
AcDbEntity
  8
0
 62
     9
100
AcDbVertex
100
AcDb3dPolylineVertex
 10
-40.45084971874735
 20
-29.38926261462366
 30
0.0
 70
    32
  0
VERTEX
  5
105
330
F1
100
AcDbEntity
  8
0
 62
     9
100
AcDbVertex
100
AcDb3dPolylineVertex
 10
-47.55282581475767
 20
-15.45084971874737
 30
0.0
 70
    32
  0
VERTEX
  5
106
330
F1
100
AcDbEntity
  8
0
 62
     9
100
AcDbVertex
100
AcDb3dPolylineVertex
 10
-50.0
 20
-0.0000000000000061
 30
0.0
 70
    32
  0
SEQEND
  5
107
330
F1
100
AcDbEntity
  8
0
 62
     9
  0
POLYLINE
  5
108
330
E7
100
AcDbEntity
  8
0
 62
     9
100
AcDb3dPolyline
 66
     1
 10
0.0
 20
0.0
 30
0.0
 70
     8
  0
VERTEX
  5
109
330
108
100
AcDbEntity
  8
0
 62
     9
100
AcDbVertex
100
AcDb3dPolylineVertex
 10
50.0
 20
0.0
 30
0.0
 70
    32
  0
VERTEX
  5
10A
330
108
100
AcDbEntity
  8
0
 62
     9
100
AcDbVertex
100
AcDb3dPolylineVertex
 10
50.0
 20
0.0
 30
4.076969656535259
 70
    32
  0
SEQEND
  5
10B
330
108
100
AcDbEntity
  8
0
 62
     9
  0
POLYLINE
  5
10C
330
E7
100
AcDbEntity
  8
0
 62
     9
100
AcDb3dPolyline
 66
     1
 10
0.0
 20
0.0
 30
0.0
 70
     8
  0
VERTEX
  5
10D
330
10C
100
AcDbEntity
  8
0
 62
     9
100
AcDbVertex
100
AcDb3dPolylineVertex
 10
-0.0000021855695001
 20
49.99999999999993
 30
0.0
 70
    32
  0
VERTEX
  5
10E
330
10C
100
AcDbEntity
  8
0
 62
     9
100
AcDbVertex
100
AcDb3dPolylineVertex
 10
-0.0000021855695001
 20
49.99999999999993
 30
4.076969656535259
 70
    32
  0
SEQEND
  5
10F
330
10C
100
AcDbEntity
  8
0
 62
     9
  0
POLYLINE
  5
110
330
E7
100
AcDbEntity
  8
0
 62
     9
100
AcDb3dPolyline
 66
     1
 10
0.0
 20
0.0
 30
0.0
 70
     8
  0
VERTEX
  5
111
330
110
100
AcDbEntity
  8
0
 62
     9
100
AcDbVertex
100
AcDb3dPolylineVertex
 10
-49.99999999999981
 20
-0.0000043711390002
 30
0.0
 70
    32
  0
VERTEX
  5
112
330
110
100
AcDbEntity
  8
0
 62
     9
100
AcDbVertex
100
AcDb3dPolylineVertex
 10
-49.99999999999981
 20
-0.0000043711390002
 30
4.076969656535259
 70
    32
  0
SEQEND
  5
113
330
110
100
AcDbEntity
  8
0
 62
     9
  0
POLYLINE
  5
114
330
E7
100
AcDbEntity
  8
0
 62
     9
100
AcDb3dPolyline
 66
     1
 10
0.0
 20
0.0
 30
0.0
 70
     8
  0
VERTEX
  5
115
330
114
100
AcDbEntity
  8
0
 62
     9
100
AcDbVertex
100
AcDb3dPolylineVertex
 10
0.0000005962440227
 20
-50.0
 30
0.0
 70
    32
  0
VERTEX
  5
116
330
114
100
AcDbEntity
  8
0
 62
     9
100
AcDbVertex
100
AcDb3dPolylineVertex
 10
0.0000005962440227
 20
-50.0
 30
4.076969656535259
 70
    32
  0
SEQEND
  5
117
330
114
100
AcDbEntity
  8
0
 62
     9
  0
POLYLINE
  5
118
330
E7
100
AcDbEntity
  8
0
 62
     9
100
AcDb3dPolyline
 66
     1
 10
0.0
 20
0.0
 30
0.0
 70
     8
  0
VERTEX
  5
119
330
118
100
AcDbEntity
  8
0
 62
     9
100
AcDbVertex
100
AcDb3dPolylineVertex
 10
-50.0
 20
0.0000000000000061
 30
4.076969656535259
 70
    32
  0
VERTEX
  5
11A
330
118
100
AcDbEntity
  8
0
 62
     9
100
AcDbVertex
100
AcDb3dPolylineVertex
 10
-47.55282581475767
 20
15.45084971874737
 30
4.076969656535259
 70
    32
  0
VERTEX
  5
11B
330
118
100
AcDbEntity
  8
0
 62
     9
100
AcDbVertex
100
AcDb3dPolylineVertex
 10
-40.45084971874735
 20
29.38926261462366
 30
4.076969656535259
 70
    32
  0
VERTEX
  5
11C
330
118
100
AcDbEntity
  8
0
 62
     9
100
AcDbVertex
100
AcDb3dPolylineVertex
 10
-29.38926261462365
 20
40.45084971874737
 30
4.076969656535259
 70
    32
  0
VERTEX
  5
11D
330
118
100
AcDbEntity
  8
0
 62
     9
100
AcDbVertex
100
AcDb3dPolylineVertex
 10
-15.45084971874737
 20
47.55282581475768
 30
4.076969656535259
 70
    32
  0
VERTEX
  5
11E
330
118
100
AcDbEntity
  8
0
 62
     9
100
AcDbVertex
100
AcDb3dPolylineVertex
 10
0.0000000000000031
 20
50.0
 30
4.076969656535259
 70
    32
  0
VERTEX
  5
11F
330
118
100
AcDbEntity
  8
0
 62
     9
100
AcDbVertex
100
AcDb3dPolylineVertex
 10
15.45084971874736
 20
47.55282581475768
 30
4.076969656535259
 70
    32
  0
VERTEX
  5
120
330
118
100
AcDbEntity
  8
0
 62
     9
100
AcDbVertex
100
AcDb3dPolylineVertex
 10
29.38926261462366
 20
40.45084971874737
 30
4.076969656535259
 70
    32
  0
VERTEX
  5
121
330
118
100
AcDbEntity
  8
0
 62
     9
100
AcDbVertex
100
AcDb3dPolylineVertex
 10
40.45084971874737
 20
29.38926261462366
 30
4.076969656535259
 70
    32
  0
VERTEX
  5
122
330
118
100
AcDbEntity
  8
0
 62
     9
100
AcDbVertex
100
AcDb3dPolylineVertex
 10
47.55282581475767
 20
15.45084971874737
 30
4.076969656535259
 70
    32
  0
VERTEX
  5
123
330
118
100
AcDbEntity
  8
0
 62
     9
100
AcDbVertex
100
AcDb3dPolylineVertex
 10
50.0
 20
0.0
 30
4.076969656535259
 70
    32
  0
VERTEX
  5
124
330
118
100
AcDbEntity
  8
0
 62
     9
100
AcDbVertex
100
AcDb3dPolylineVertex
 10
47.55282581475767
 20
-15.45084971874737
 30
4.076969656535259
 70
    32
  0
VERTEX
  5
125
330
118
100
AcDbEntity
  8
0
 62
     9
100
AcDbVertex
100
AcDb3dPolylineVertex
 10
40.45084971874739
 20
-29.38926261462365
 30
4.076969656535259
 70
    32
  0
VERTEX
  5
126
330
118
100
AcDbEntity
  8
0
 62
     9
100
AcDbVertex
100
AcDb3dPolylineVertex
 10
29.38926261462366
 20
-40.45084971874737
 30
4.076969656535259
 70
    32
  0
VERTEX
  5
127
330
118
100
AcDbEntity
  8
0
 62
     9
100
AcDbVertex
100
AcDb3dPolylineVertex
 10
15.45084971874737
 20
-47.55282581475767
 30
4.076969656535259
 70
    32
  0
VERTEX
  5
128
330
118
100
AcDbEntity
  8
0
 62
     9
100
AcDbVertex
100
AcDb3dPolylineVertex
 10
0.0000000000000031
 20
-50.0
 30
4.076969656535259
 70
    32
  0
VERTEX
  5
129
330
118
100
AcDbEntity
  8
0
 62
     9
100
AcDbVertex
100
AcDb3dPolylineVertex
 10
-15.45084971874737
 20
-47.55282581475768
 30
4.076969656535259
 70
    32
  0
VERTEX
  5
12A
330
118
100
AcDbEntity
  8
0
 62
     9
100
AcDbVertex
100
AcDb3dPolylineVertex
 10
-29.38926261462365
 20
-40.45084971874737
 30
4.076969656535259
 70
    32
  0
VERTEX
  5
12B
330
118
100
AcDbEntity
  8
0
 62
     9
100
AcDbVertex
100
AcDb3dPolylineVertex
 10
-40.45084971874735
 20
-29.38926261462366
 30
4.076969656535259
 70
    32
  0
VERTEX
  5
12C
330
118
100
AcDbEntity
  8
0
 62
     9
100
AcDbVertex
100
AcDb3dPolylineVertex
 10
-47.55282581475767
 20
-15.45084971874737
 30
4.076969656535259
 70
    32
  0
VERTEX
  5
12D
330
118
100
AcDbEntity
  8
0
 62
     9
100
AcDbVertex
100
AcDb3dPolylineVertex
 10
-50.0
 20
-0.0000000000000061
 30
4.076969656535259
 70
    32
  0
SEQEND
  5
12E
330
118
100
AcDbEntity
  8
0
 62
     9
  0
POLYLINE
  5
12F
330
E7
100
AcDbEntity
  8
0
 62
     9
100
AcDb3dPolyline
 66
     1
 10
0.0
 20
0.0
 30
0.0
 70
     8
  0
VERTEX
  5
130
330
12F
100
AcDbEntity
  8
0
 62
     9
100
AcDbVertex
100
AcDb3dPolylineVertex
 10
-50.0
 20
0.0
 30
4.076969656535259
 70
    32
  0
VERTEX
  5
131
330
12F
100
AcDbEntity
  8
0
 62
     9
100
AcDbVertex
100
AcDb3dPolylineVertex
 10
50.0
 20
0.0
 30
4.076969656535259
 70
    32
  0
SEQEND
  5
132
330
12F
100
AcDbEntity
  8
0
 62
     9
  0
POLYLINE
  5
133
330
E7
100
AcDbEntity
  8
0
 62
     9
100
AcDb3dPolyline
 66
     1
 10
0.0
 20
0.0
 30
0.0
 70
     8
  0
VERTEX
  5
134
330
133
100
AcDbEntity
  8
0
 62
     9
100
AcDbVertex
100
AcDb3dPolylineVertex
 10
0.0
 20
-50.0
 30
4.076969656535259
 70
    32
  0
VERTEX
  5
135
330
133
100
AcDbEntity
  8
0
 62
     9
100
AcDbVertex
100
AcDb3dPolylineVertex
 10
0.0
 20
50.0
 30
4.076969656535259
 70
    32
  0
SEQEND
  5
136
330
133
100
AcDbEntity
  8
0
 62
     9
  0
ENDBLK
  5
137
330
E7
100
AcDbEntity
  8
0
100
AcDbBlockEnd
  0
BLOCK
  5
227
330
226
100
AcDbEntity
  8
0
100
AcDbBlockBegin
  2
*D3
 70
     1
 10
0.0
 20
0.0
 30
0.0
  3
*D3
  1

  0
LINE
  5
229
330
226
100
AcDbEntity
  8
0
  6
Continuous
 62
     0
440
 16777216
370
    -2
100
AcDbLine
 10
0.0000000000000035
 20
-0.0625
 30
0.0
 11
0.0000000000000033
 21
-3.515716555207733
 31
0.0
  0
LINE
  5
22A
330
226
100
AcDbEntity
  8
0
  6
Continuous
 62
     0
440
 16777216
370
    -2
100
AcDbLine
 10
40.00005922500448
 20
-0.0641959822287177
 30
0.0
 11
40.00005922500448
 21
-3.515716555207733
 31
0.0
  0
LINE
  5
22B
330
226
100
AcDbEntity
  8
0
  6
Continuous
 62
     0
440
 16777216
370
    -2
100
AcDbLine
 10
0.1800000000000034
 20
-3.335716555207733
 30
0.0
 11
19.46002961250224
 21
-3.335716555207733
 31
0.0
  0
LINE
  5
22C
330
226
100
AcDbEntity
  8
0
  6
Continuous
 62
     0
440
 16777216
370
    -2
100
AcDbLine
 10
39.82005922500448
 20
-3.335716555207733
 30
0.0
 11
20.54002961250224
 21
-3.335716555207733
 31
0.0
  0
SOLID
  5
22D
330
226
100
AcDbEntity
  8
0
  6
Continuous
 62
     0
440
 16777216
100
AcDbTrace
 10
0.1800000000000034
 20
-3.305716555207733
 30
0.0
 11
0.1800000000000034
 21
-3.365716555207733
 31
0.0
 12
0.0000000000000033
 22
-3.335716555207733
 32
0.0
 13
0.0000000000000033
 23
-3.335716555207733
 33
0.0
  0
SOLID
  5
22E
330
226
100
AcDbEntity
  8
0
  6
Continuous
 62
     0
440
 16777216
100
AcDbTrace
 10
39.82005922500448
 20
-3.305716555207733
 30
0.0
 11
39.82005922500448
 21
-3.365716555207733
 31
0.0
 12
40.00005922500448
 22
-3.335716555207733
 32
0.0
 13
40.00005922500448
 23
-3.335716555207733
 33
0.0
  0
MTEXT
  5
22F
330
226
100
AcDbEntity
  8
0
  6
Continuous
 62
     0
440
 16777216
100
AcDbMText
 10
20.00002961250224
 20
-3.335716555207733
 30
0.0
 40
0.18
 41
0.0
 46
0.0
 71
     5
 72
     1
  1
\A1;40.0001
 73
     1
 44
1.0
  0
POINT
  5
230
330
226
100
AcDbEntity
  8
Defpoints
  6
Continuous
 62
     0
440
 16777216
100
AcDbPoint
 10
0.0000000000000036
 20
0.0
 30
-0.0000000000000006
  0
POINT
  5
231
330
226
100
AcDbEntity
  8
Defpoints
  6
Continuous
 62
     0
440
 16777216
100
AcDbPoint
 10
40.00005922500448
 20
-0.0016959822287177
 30
-0.0000000000000006
  0
POINT
  5
232
330
226
100
AcDbEntity
  8
Defpoints
  6
Continuous
 62
     0
440
 16777216
100
AcDbPoint
 10
40.00005922500448
 20
-3.335716555207733
 30
0.0
  0
ENDBLK
  5
228
330
226
100
AcDbEntity
  8
0
100
AcDbBlockEnd
  0
ENDSEC
  0
SECTION
  2
ENTITIES
  0
INSERT
  5
138
330
6F
100
AcDbEntity
  8
0
 62
     9
100
AcDbBlockReference
 66
     1
  2
LENS_1
 10
0.0
 20
0.0
 30
0.0
 50
270.0
210
1.0
220
0.0
230
0.0
  0
ATTRIB
  5
139
330
138
100
AcDbEntity
  8
0
100
AcDbText
 10
0.0
 20
0.0
 30
0.0
 40
1.0
  1
ne_USER
100
AcDbAttribute
280
     0
  2
MATERIAL
 70
     3
280
     0
  0
ATTRIB
  5
13A
330
138
100
AcDbEntity
  8
0
100
AcDbText
 10
0.0
 20
0.0
 30
0.0
 40
1.0
  1
4
100
AcDbAttribute
280
     0
  2
LP_1: LENS_ELEMENT_WIDTH
 70
     3
280
     0
  0
ATTRIB
  5
13B
330
138
100
AcDbEntity
  8
0
100
AcDbText
 10
0.0
 20
0.0
 30
0.0
 40
1.0
  1
4
100
AcDbAttribute
280
     0
  2
LP_1: LENS_ELEMENT_HEIGHT
 70
     3
280
     0
  0
ATTRIB
  5
13C
330
138
100
AcDbEntity
  8
0
100
AcDbText
 10
0.0
 20
0.0
 30
0.0
 40
1.0
  1
40
100
AcDbAttribute
280
     0
  2
LP_1: LENS_CENTER_THICKNESS
 70
     3
280
     0
  0
ATTRIB
  5
13D
330
138
100
AcDbEntity
  8
0
100
AcDbText
 10
0.0
 20
0.0
 30
0.0
 40
1.0
  1
39.832342142174817
100
AcDbAttribute
280
     0
  2
LP_1: LENS_EDGE_THICKNESS
 70
     3
280
     0
  0
ATTRIB
  5
13E
330
138
100
AcDbEntity
  8
0
100
AcDbText
 10
0.0
 20
0.0
 30
0.0
 40
1.0
  1
0,0,0
100
AcDbAttribute
280
     0
  2
LP_1.LensFrontSurface: SURFACE_VERTEX
 70
     3
280
     0
  0
ATTRIB
  5
13F
330
138
100
AcDbEntity
  8
0
100
AcDbText
 10
0.0
 20
87.2
 30
180.0
 40
1.0
  1
0,87.200000000000003,180
100
AcDbAttribute
280
     0
  2
LP_1.LensFrontSurface: SURFACE_EULER_ANGLES
 70
     3
280
     0
  0
ATTRIB
  5
140
330
138
100
AcDbEntity
  8
0
100
AcDbText
 10
0.0
 20
0.0
 30
0.0
 40
1.0
  1
0 CX
100
AcDbAttribute
280
     0
  2
LP_1.LensFrontSurface: SURFACE_CURVATURE
 70
     3
280
     0
  0
ATTRIB
  5
141
330
138
100
AcDbEntity
  8
0
100
AcDbText
 10
40.0
 20
0.0
 30
0.0
 40
1.0
  1
40,0,0
100
AcDbAttribute
280
     0
  2
LP_1.LensRearSurface: SURFACE_VERTEX
 70
     3
280
     0
  0
ATTRIB
  5
142
330
138
100
AcDbEntity
  8
0
100
AcDbText
 10
0.0
 20
-88.0
 30
0.0
 40
1.0
  1
0,-88,0
100
AcDbAttribute
280
     0
  2
LP_1.LensRearSurface: SURFACE_EULER_ANGLES
 70
     3
280
     0
  0
ATTRIB
  5
143
330
138
100
AcDbEntity
  8
0
100
AcDbText
 10
40.0
 20
0.0
 30
0.0
 40
1.0
  1
0 CX
100
AcDbAttribute
280
     0
  2
LP_1.LensRearSurface: SURFACE_CURVATURE
 70
     3
280
     0
  0
SEQEND
  5
144
330
138
100
AcDbEntity
  8
0
  0
POLYLINE
  5
145
330
6F
100
AcDbEntity
  8
0
 62
     5
100
AcDb3dPolyline
 66
     1
 10
0.0
 20
0.0
 30
0.0
 70
     8
  0
VERTEX
  5
146
330
145
100
AcDbEntity
  8
0
 62
     5
100
AcDbVertex
100
AcDb3dPolylineVertex
 10
0.0
 20
0.0
 30
0.0
 70
    32
  0
VERTEX
  5
147
330
145
100
AcDbEntity
  8
0
 62
     5
100
AcDbVertex
100
AcDb3dPolylineVertex
 10
40.0
 20
0.0
 30
0.0000000000000002
 70
    32
  0
VERTEX
  5
148
330
145
100
AcDbEntity
  8
0
 62
     5
100
AcDbVertex
100
AcDb3dPolylineVertex
 10
40.0
 20
0.0
 30
0.0000000000000002
 70
    32
  0
VERTEX
  5
149
330
145
100
AcDbEntity
  8
0
 62
     5
100
AcDbVertex
100
AcDb3dPolylineVertex
 10
45.62411526651285
 20
0.0
 30
-0.2234040753599396
 70
    32
  0
SEQEND
  5
14A
330
145
100
AcDbEntity
  8
0
 62
     5
  0
POLYLINE
  5
14B
330
6F
100
AcDbEntity
  8
0
 62
     5
100
AcDb3dPolyline
 66
     1
 10
0.0
 20
0.0
 30
0.0
 70
     8
  0
VERTEX
  5
14C
330
14B
100
AcDbEntity
  8
0
 62
     5
100
AcDbVertex
100
AcDb3dPolylineVertex
 10
40.0
 20
0.0
 30
0.0000000000000002
 70
    32
  0
VERTEX
  5
14D
330
14B
100
AcDbEntity
  8
0
 62
     5
100
AcDbVertex
100
AcDb3dPolylineVertex
 10
11.39866748657613
 20
0.0
 30
-2.0
 70
    32
  0
VERTEX
  5
14E
330
14B
100
AcDbEntity
  8
0
 62
     5
100
AcDbVertex
100
AcDb3dPolylineVertex
 10
11.39866748657613
 20
0.0
 30
-2.0
 70
    32
  0
VERTEX
  5
14F
330
14B
100
AcDbEntity
  8
0
 62
     5
100
AcDbVertex
100
AcDb3dPolylineVertex
 10
-0.0586324485449937
 20
0.0
 30
-1.19882754205639
 70
    32
  0
SEQEND
  5
150
330
14B
100
AcDbEntity
  8
0
 62
     5
  0
POLYLINE
  5
151
330
6F
100
AcDbEntity
  8
0
 62
     9
100
AcDb3dPolyline
 66
     1
 10
0.0
 20
0.0
 30
0.0
 70
     8
  0
VERTEX
  5
152
330
151
100
AcDbEntity
  8
0
 62
     9
100
AcDbVertex
100
AcDb3dPolylineVertex
 10
40.0
 20
0.0
 30
0.0
 70
    32
  0
VERTEX
  5
153
330
151
100
AcDbEntity
  8
0
 62
     9
100
AcDbVertex
100
AcDb3dPolylineVertex
 10
0.0
 20
0.0
 30
-0.0000000000000002
 70
    32
  0
VERTEX
  5
154
330
151
100
AcDbEntity
  8
0
 62
     9
100
AcDbVertex
100
AcDb3dPolylineVertex
 10
0.0
 20
0.0
 30
-0.0000000000000002
 70
    32
  0
VERTEX
  5
155
330
151
100
AcDbEntity
  8
0
 62
     9
100
AcDbVertex
100
AcDb3dPolylineVertex
 10
-100.0
 20
0.0
 30
-5.5712856381205
 70
    32
  0
VERTEX
  5
156
330
151
100
AcDbEntity
  8
0
 62
     9
100
AcDbVertex
100
AcDb3dPolylineVertex
 10
-100.0
 20
0.0
 30
-5.5712856381205
 70
    32
  0
VERTEX
  5
157
330
151
100
AcDbEntity
  8
0
 62
     9
100
AcDbVertex
100
AcDb3dPolylineVertex
 10
-104.0769696565352
 20
0.0
 30
-5.721914486203128
 70
    32
  0
VERTEX
  5
158
330
151
100
AcDbEntity
  8
0
 62
     9
100
AcDbVertex
100
AcDb3dPolylineVertex
 10
-104.0769696565352
 20
0.0
 30
-5.721914486203128
 70
    32
  0
VERTEX
  5
159
330
151
100
AcDbEntity
  8
0
 62
     9
100
AcDbVertex
100
AcDb3dPolylineVertex
 10
-106.2538359070074
 20
0.0
 30
-5.843193922976774
 70
    32
  0
SEQEND
  5
15A
330
151
100
AcDbEntity
  8
0
 62
     9
  0
INSERT
  5
15B
330
6F
100
AcDbEntity
  8
0
 62
     9
100
AcDbBlockReference
 66
     1
  2
LENS_5
 10
0.0
 20
0.0
 30
100.0
 50
90.0
210
-1.0
220
0.0
230
0.0
  0
ATTRIB
  5
15C
330
15B
100
AcDbEntity
  8
0
100
AcDbText
 10
-100.0
 20
0.0
 30
0.0
 40
1.0
  1
NBK7_SCHOTT
100
AcDbAttribute
280
     0
  2
MATERIAL
 70
     3
280
     0
  0
ATTRIB
  5
15D
330
15B
100
AcDbEntity
  8
0
100
AcDbText
 10
-100.0
 20
0.0
 30
0.0
 40
1.0
  1
100
100
AcDbAttribute
280
     0
  2
LP_2: LENS_ELEMENT_DIAMETER
 70
     3
280
     0
  0
ATTRIB
  5
15E
330
15B
100
AcDbEntity
  8
0
100
AcDbText
 10
-100.0
 20
0.0
 30
0.0
 40
1.0
  1
4.07696965653526
100
AcDbAttribute
280
     0
  2
LP_2: LENS_CENTER_THICKNESS
 70
     3
280
     0
  0
ATTRIB
  5
15F
330
15B
100
AcDbEntity
  8
0
100
AcDbText
 10
-100.0
 20
0.0
 30
0.0
 40
1.0
  1
4.07696965653526
100
AcDbAttribute
280
     0
  2
LP_2: LENS_EDGE_THICKNESS
 70
     3
280
     0
  0
ATTRIB
  5
160
330
15B
100
AcDbEntity
  8
0
100
AcDbText
 10
-100.0
 20
0.0
 30
0.0
 40
1.0
  1
-100,0,0
100
AcDbAttribute
280
     0
  2
LP_2.LensFrontSurface: SURFACE_VERTEX
 70
     3
280
     0
  0
ATTRIB
  5
161
330
15B
100
AcDbEntity
  8
0
100
AcDbText
 10
180.0
 20
-90.0
 30
0.0
 40
1.0
  1
180,-90,0
100
AcDbAttribute
280
     0
  2
LP_2.LensFrontSurface: SURFACE_EULER_ANGLES
 70
     3
280
     0
  0
ATTRIB
  5
162
330
15B
100
AcDbEntity
  8
0
100
AcDbText
 10
-100.0
 20
0.0
 30
0.0
 40
1.0
  1
0 CX
100
AcDbAttribute
280
     0
  2
LP_2.LensFrontSurface: SURFACE_CURVATURE
 70
     3
280
     0
  0
ATTRIB
  5
163
330
15B
100
AcDbEntity
  8
0
100
AcDbText
 10
-104.0769696565352
 20
0.0
 30
0.0
 40
1.0
  1
-104.07696965653525,0,0
100
AcDbAttribute
280
     0
  2
LP_2.LensRearSurface: SURFACE_VERTEX
 70
     3
280
     0
  0
ATTRIB
  5
164
330
15B
100
AcDbEntity
  8
0
100
AcDbText
 10
0.0
 20
90.0
 30
0.0
 40
1.0
  1
0,90,0
100
AcDbAttribute
280
     0
  2
LP_2.LensRearSurface: SURFACE_EULER_ANGLES
 70
     3
280
     0
  0
ATTRIB
  5
165
330
15B
100
AcDbEntity
  8
0
100
AcDbText
 10
-104.0769696565352
 20
0.0
 30
0.0
 40
1.0
  1
0 CX
100
AcDbAttribute
280
     0
  2
LP_2.LensRearSurface: SURFACE_CURVATURE
 70
     3
280
     0
  0
SEQEND
  5
166
330
15B
100
AcDbEntity
  8
0
  0
POLYLINE
  5
167
330
6F
100
AcDbEntity
  8
0
 62
     1
100
AcDb3dPolyline
 66
     1
 10
0.0
 20
0.0
 30
0.0
 70
     8
  0
VERTEX
  5
168
330
167
100
AcDbEntity
  8
0
 62
     1
100
AcDbVertex
100
AcDb3dPolylineVertex
 10
-100.0
 20
0.0
 30
-5.5712856381205
 70
    32
  0
VERTEX
  5
169
330
167
100
AcDbEntity
  8
0
 62
     1
100
AcDbVertex
100
AcDb3dPolylineVertex
 10
-0.0000699741838758
 20
0.0
 30
-0.0014307261754358
 70
    32
  0
VERTEX
  5
16A
330
167
100
AcDbEntity
  8
0
 62
     1
100
AcDbVertex
100
AcDb3dPolylineVertex
 10
-0.0000699741838758
 20
0.0
 30
-0.0014307261754358
 70
    32
  0
VERTEX
  5
16B
330
167
100
AcDbEntity
  8
0
 62
     1
100
AcDbVertex
100
AcDb3dPolylineVertex
 10
40.00005922500447
 20
0.0
 30
-0.0016959822287174
 70
    32
  0
VERTEX
  5
16C
330
167
100
AcDbEntity
  8
0
 62
     1
100
AcDbVertex
100
AcDb3dPolylineVertex
 10
40.00005922500447
 20
0.0
 30
-0.0016959822287174
 70
    32
  0
VERTEX
  5
16D
330
167
100
AcDbEntity
  8
0
 62
     1
100
AcDbVertex
100
AcDb3dPolylineVertex
 10
42.51281212091996
 20
0.0
 30
-0.1015446022048233
 70
    32
  0
SEQEND
  5
16E
330
167
100
AcDbEntity
  8
0
 62
     1
  0
POLYLINE
  5
16F
330
6F
100
AcDbEntity
  8
0
 62
     1
100
AcDb3dPolyline
 66
     1
 10
0.0
 20
0.0
 30
0.0
 70
     8
  0
VERTEX
  5
170
330
16F
100
AcDbEntity
  8
0
 62
     1
100
AcDbVertex
100
AcDb3dPolylineVertex
 10
40.00005922500447
 20
0.0
 30
-0.0016959822287174
 70
    32
  0
VERTEX
  5
171
330
16F
100
AcDbEntity
  8
0
 62
     1
100
AcDbVertex
100
AcDb3dPolylineVertex
 10
11.42570343511999
 20
0.0
 30
-2.0
 70
    32
  0
VERTEX
  5
172
330
16F
100
AcDbEntity
  8
0
 62
     1
100
AcDbVertex
100
AcDb3dPolylineVertex
 10
11.42570343511999
 20
0.0
 30
-2.0
 70
    32
  0
VERTEX
  5
173
330
16F
100
AcDbEntity
  8
0
 62
     1
100
AcDbVertex
100
AcDb3dPolylineVertex
 10
-0.0585365708454328
 20
0.0
 30
-1.196867180008498
 70
    32
  0
VERTEX
  5
174
330
16F
100
AcDbEntity
  8
0
 62
     1
100
AcDbVertex
100
AcDb3dPolylineVertex
 10
-0.0585365708454328
 20
0.0
 30
-1.196867180008498
 70
    32
  0
VERTEX
  5
175
330
16F
100
AcDbEntity
  8
0
 62
     1
100
AcDbVertex
100
AcDb3dPolylineVertex
 10
-100.0
 20
0.0
 30
8.187846858860996
 70
    32
  0
VERTEX
  5
176
330
16F
100
AcDbEntity
  8
0
 62
     1
100
AcDbVertex
100
AcDb3dPolylineVertex
 10
-100.0
 20
0.0
 30
8.187846858860996
 70
    32
  0
VERTEX
  5
177
330
16F
100
AcDbEntity
  8
0
 62
     1
100
AcDbVertex
100
AcDb3dPolylineVertex
 10
-104.0769696565352
 20
0.0
 30
8.441322509161137
 70
    32
  0
VERTEX
  5
178
330
16F
100
AcDbEntity
  8
0
 62
     1
100
AcDbVertex
100
AcDb3dPolylineVertex
 10
-104.0769696565352
 20
0.0
 30
8.441322509161137
 70
    32
  0
VERTEX
  5
179
330
16F
100
AcDbEntity
  8
0
 62
     1
100
AcDbVertex
100
AcDb3dPolylineVertex
 10
-106.5806914101975
 20
0.0
 30
8.676427258329363
 70
    32
  0
SEQEND
  5
17A
330
16F
100
AcDbEntity
  8
0
 62
     1
  0
POLYLINE
  5
17B
330
6F
100
AcDbEntity
  8
0
 62
     1
100
AcDb3dPolyline
 66
     1
 10
0.0
 20
0.0
 30
0.0
 70
     8
  0
VERTEX
  5
17C
330
17B
100
AcDbEntity
  8
0
 62
     1
100
AcDbVertex
100
AcDb3dPolylineVertex
 10
-0.0585365708454328
 20
0.0
 30
-1.196867180008498
 70
    32
  0
VERTEX
  5
17D
330
17B
100
AcDbEntity
  8
0
 62
     1
100
AcDbVertex
100
AcDb3dPolylineVertex
 10
28.7008957678783
 20
0.0
 30
-2.0
 70
    32
  0
VERTEX
  5
17E
330
17B
100
AcDbEntity
  8
0
 62
     1
100
AcDbVertex
100
AcDb3dPolylineVertex
 10
28.7008957678783
 20
0.0
 30
-2.0
 70
    32
  0
VERTEX
  5
17F
330
17B
100
AcDbEntity
  8
0
 62
     1
100
AcDbVertex
100
AcDb3dPolylineVertex
 10
40.05876541651252
 20
0.0
 30
-1.682821351528516
 70
    32
  0
VERTEX
  5
180
330
17B
100
AcDbEntity
  8
0
 62
     1
100
AcDbVertex
100
AcDb3dPolylineVertex
 10
40.05876541651252
 20
0.0
 30
-1.682821351528516
 70
    32
  0
VERTEX
  5
181
330
17B
100
AcDbEntity
  8
0
 62
     1
100
AcDbVertex
100
AcDb3dPolylineVertex
 10
42.57299937647737
 20
0.0
 30
-1.632577372761705
 70
    32
  0
SEQEND
  5
182
330
17B
100
AcDbEntity
  8
0
 62
     1
  0
POLYLINE
  5
183
330
6F
100
AcDbEntity
  8
0
 62
     1
100
AcDb3dPolyline
 66
     1
 10
0.0
 20
0.0
 30
0.0
 70
     8
  0
VERTEX
  5
184
330
183
100
AcDbEntity
  8
0
 62
     1
100
AcDbVertex
100
AcDb3dPolylineVertex
 10
-0.0000699741838758
 20
0.0
 30
-0.0014307261754358
 70
    32
  0
VERTEX
  5
185
330
183
100
AcDbEntity
  8
0
 62
     1
100
AcDbVertex
100
AcDb3dPolylineVertex
 10
-100.0
 20
0.0
 30
15.45793117821688
 70
    32
  0
VERTEX
  5
186
330
183
100
AcDbEntity
  8
0
 62
     1
100
AcDbVertex
100
AcDb3dPolylineVertex
 10
-100.0
 20
0.0
 30
15.45793117821688
 70
    32
  0
VERTEX
  5
187
330
183
100
AcDbEntity
  8
0
 62
     1
100
AcDbVertex
100
AcDb3dPolylineVertex
 10
-104.0769696565352
 20
0.0
 30
15.87349447475257
 70
    32
  0
VERTEX
  5
188
330
183
100
AcDbEntity
  8
0
 62
     1
100
AcDbVertex
100
AcDb3dPolylineVertex
 10
-104.0769696565352
 20
0.0
 30
15.87349447475257
 70
    32
  0
VERTEX
  5
189
330
183
100
AcDbEntity
  8
0
 62
     1
100
AcDbVertex
100
AcDb3dPolylineVertex
 10
-106.5621836080669
 20
0.0
 30
16.25769296245806
 70
    32
  0
SEQEND
  5
18A
330
183
100
AcDbEntity
  8
0
 62
     1
  0
ENDSEC
  0
SECTION
  2
OBJECTS
  0
DICTIONARY
  5
C
330
0
100
AcDbDictionary
281
     1
  3
ACAD_BACKGROUND
350
18D
  3
ACAD_CIP_PREVIOUS_PRODUCT_INFO
350
18C
  3
ACAD_COLOR
350
62
  3
ACAD_DETAILVIEWSTYLE
350
69
  3
ACAD_GROUP
350
D
  3
ACAD_LAYOUT
350
61
  3
ACAD_MATERIAL
350
10
  3
ACAD_MLEADERSTYLE
350
65
  3
ACAD_MLINESTYLE
350
5E
  3
ACAD_PLOTSETTINGS
350
60
  3
ACAD_PLOTSTYLENAME
350
E
  3
ACAD_SCALELIST
350
42
  3
ACAD_SECTIONVIEWSTYLE
350
67
  3
ACAD_TABLESTYLE
350
63
  3
ACAD_VISUALSTYLE
350
29
  3
ACDB_RECOMPOSE_DATA
350
24F
  3
AcDbVariableDictionary
350
1D6
  0
DICTIONARY
  5
20A
330
2
100
AcDbDictionary
280
     1
281
     1
  3
ACAD_LAYERSTATES
360
20B
  0
DICTIONARY
  5
190
330
54
100
AcDbDictionary
280
     1
281
     1
  3
ADSK_XREC_LAYER_RECONCILED
360
191
  0
DICTIONARY
  5
192
330
73
100
AcDbDictionary
280
     1
281
     1
  3
ADSK_XREC_LAYER_RECONCILED
360
193
  0
DICTIONARY
  5
194
330
74
100
AcDbDictionary
280
     1
281
     1
  3
ADSK_XREC_LAYER_RECONCILED
360
195
  0
DICTIONARY
  5
196
330
75
100
AcDbDictionary
280
     1
281
     1
  3
ADSK_XREC_LAYER_RECONCILED
360
197
  0
DICTIONARY
  5
198
330
76
100
AcDbDictionary
280
     1
281
     1
  3
ADSK_XREC_LAYER_RECONCILED
360
199
  0
DICTIONARY
  5
19A
330
77
100
AcDbDictionary
280
     1
281
     1
  3
ADSK_XREC_LAYER_RECONCILED
360
19B
  0
DICTIONARY
  5
19C
330
78
100
AcDbDictionary
280
     1
281
     1
  3
ADSK_XREC_LAYER_RECONCILED
360
19D
  0
DICTIONARY
  5
19E
330
79
100
AcDbDictionary
280
     1
281
     1
  3
ADSK_XREC_LAYER_RECONCILED
360
19F
  0
DICTIONARY
  5
1A0
330
7A
100
AcDbDictionary
280
     1
281
     1
  3
ADSK_XREC_LAYER_RECONCILED
360
1A1
  0
DICTIONARY
  5
1A2
330
7B
100
AcDbDictionary
280
     1
281
     1
  3
ADSK_XREC_LAYER_RECONCILED
360
1A3
  0
DICTIONARY
  5
1A4
330
7C
100
AcDbDictionary
280
     1
281
     1
  3
ADSK_XREC_LAYER_RECONCILED
360
1A5
  0
DICTIONARY
  5
1A6
330
7D
100
AcDbDictionary
280
     1
281
     1
  3
ADSK_XREC_LAYER_RECONCILED
360
1A7
  0
DICTIONARY
  5
1A8
330
7E
100
AcDbDictionary
280
     1
281
     1
  3
ADSK_XREC_LAYER_RECONCILED
360
1A9
  0
DICTIONARY
  5
1AA
330
7F
100
AcDbDictionary
280
     1
281
     1
  3
ADSK_XREC_LAYER_RECONCILED
360
1AB
  0
DICTIONARY
  5
1AC
330
80
100
AcDbDictionary
280
     1
281
     1
  3
ADSK_XREC_LAYER_RECONCILED
360
1AD
  0
DICTIONARY
  5
1AE
330
81
100
AcDbDictionary
280
     1
281
     1
  3
ADSK_XREC_LAYER_RECONCILED
360
1AF
  0
DICTIONARY
  5
1B0
330
82
100
AcDbDictionary
280
     1
281
     1
  3
ADSK_XREC_LAYER_RECONCILED
360
1B1
  0
DICTIONARY
  5
1B2
330
83
100
AcDbDictionary
280
     1
281
     1
  3
ADSK_XREC_LAYER_RECONCILED
360
1B3
  0
DICTIONARY
  5
1B4
330
84
100
AcDbDictionary
280
     1
281
     1
  3
ADSK_XREC_LAYER_RECONCILED
360
1B5
  0
DICTIONARY
  5
1B6
330
85
100
AcDbDictionary
280
     1
281
     1
  3
ADSK_XREC_LAYER_RECONCILED
360
1B7
  0
DICTIONARY
  5
1B8
330
86
100
AcDbDictionary
280
     1
281
     1
  3
ADSK_XREC_LAYER_RECONCILED
360
1B9
  0
DICTIONARY
  5
1BA
330
87
100
AcDbDictionary
280
     1
281
     1
  3
ADSK_XREC_LAYER_RECONCILED
360
1BB
  0
DICTIONARY
  5
1BC
330
88
100
AcDbDictionary
280
     1
281
     1
  3
ADSK_XREC_LAYER_RECONCILED
360
1BD
  0
DICTIONARY
  5
1BE
330
89
100
AcDbDictionary
280
     1
281
     1
  3
ADSK_XREC_LAYER_RECONCILED
360
1BF
  0
DICTIONARY
  5
1C0
330
8A
100
AcDbDictionary
280
     1
281
     1
  3
ADSK_XREC_LAYER_RECONCILED
360
1C1
  0
DICTIONARY
  5
1C2
330
8B
100
AcDbDictionary
280
     1
281
     1
  3
ADSK_XREC_LAYER_RECONCILED
360
1C3
  0
DICTIONARY
  5
1C4
330
8C
100
AcDbDictionary
280
     1
281
     1
  3
ADSK_XREC_LAYER_RECONCILED
360
1C5
  0
DICTIONARY
  5
1C6
330
8D
100
AcDbDictionary
280
     1
281
     1
  3
ADSK_XREC_LAYER_RECONCILED
360
1C7
  0
DICTIONARY
  5
1C8
330
8E
100
AcDbDictionary
280
     1
281
     1
  3
ADSK_XREC_LAYER_RECONCILED
360
1C9
  0
DICTIONARY
  5
1CA
330
8F
100
AcDbDictionary
280
     1
281
     1
  3
ADSK_XREC_LAYER_RECONCILED
360
1CB
  0
DICTIONARY
  5
1CC
330
90
100
AcDbDictionary
280
     1
281
     1
  3
ADSK_XREC_LAYER_RECONCILED
360
1CD
  0
DICTIONARY
  5
1CE
330
91
100
AcDbDictionary
280
     1
281
     1
  3
ADSK_XREC_LAYER_RECONCILED
360
1CF
  0
DICTIONARY
  5
18D
102
{ACAD_REACTORS
330
C
102
}
330
C
100
AcDbDictionary
281
     1
  0
XRECORD
  5
18C
102
{ACAD_REACTORS
330
C
102
}
330
C
100
AcDbXrecord
280
     1
300
ACD
300
2015
300
ACD_F_S
  0
DICTIONARY
  5
62
102
{ACAD_REACTORS
330
C
102
}
330
C
100
AcDbDictionary
281
     1
  0
DICTIONARY
  5
69
102
{ACAD_REACTORS
330
C
102
}
330
C
100
AcDbDictionary
281
     1
  3
Imperial24
350
6A
  0
DICTIONARY
  5
D
102
{ACAD_REACTORS
330
C
102
}
330
C
100
AcDbDictionary
281
     1
  0
DICTIONARY
  5
61
102
{ACAD_REACTORS
330
C
102
}
330
C
100
AcDbDictionary
281
     1
  3
Model
350
72
  3
レイアウト1
350
6E
  0
DICTIONARY
  5
10
102
{ACAD_REACTORS
330
C
102
}
330
C
100
AcDbDictionary
281
     1
  3
ByBlock
350
19
  3
ByLayer
350
11
  3
Global
350
21
  0
DICTIONARY
  5
65
102
{ACAD_REACTORS
330
C
102
}
330
C
100
AcDbDictionary
281
     1
  3
Standard
350
66
  0
DICTIONARY
  5
5E
102
{ACAD_REACTORS
330
C
102
}
330
C
100
AcDbDictionary
281
     1
  3
Standard
350
5F
  0
DICTIONARY
  5
60
102
{ACAD_REACTORS
330
C
102
}
330
C
100
AcDbDictionary
281
     1
  0
ACDBDICTIONARYWDFLT
  5
E
102
{ACAD_REACTORS
330
C
102
}
330
C
100
AcDbDictionary
281
     1
  3
Normal
350
F
100
AcDbDictionaryWithDefault
340
F
  0
DICTIONARY
  5
42
102
{ACAD_REACTORS
330
C
102
}
330
C
100
AcDbDictionary
281
     1
  3
A0
350
43
  3
A1
350
44
  3
A2
350
45
  3
A3
350
46
  3
A4
350
47
  3
A5
350
48
  3
A6
350
49
  3
A7
350
4A
  3
A8
350
4B
  3
A9
350
4C
  3
B0
350
4D
  3
B1
350
4E
  3
B2
350
4F
  3
B3
350
50
  3
B4
350
51
  3
B5
350
52
  3
B6
350
53
  0
DICTIONARY
  5
67
102
{ACAD_REACTORS
330
C
102
}
330
C
100
AcDbDictionary
281
     1
  3
Imperial24
350
68
  0
DICTIONARY
  5
63
102
{ACAD_REACTORS
330
C
102
}
330
C
100
AcDbDictionary
281
     1
  3
Standard
350
64
  0
DICTIONARY
  5
29
102
{ACAD_REACTORS
330
C
102
}
330
C
100
AcDbDictionary
281
     1
  3
2dWireframe
350
2F
  3
Basic
350
2E
  3
Brighten
350
35
  3
ColorChange
350
39
  3
Conceptual
350
32
  3
Dim
350
34
  3
EdgeColorOff
350
41
  3
Facepattern
350
38
  3
Flat
350
2A
  3
FlatWithEdges
350
2B
  3
Gouraud
350
2C
  3
GouraudWithEdges
350
2D
  3
Hidden
350
31
  3
JitterOff
350
3F
  3
Linepattern
350
37
  3
OverhangOff
350
40
  3
Realistic
350
33
  3
Shaded
350
3E
  3
Shaded with edges
350
3D
  3
Shades of Gray
350
3A
  3
Sketchy
350
3B
  3
Thicken
350
36
  3
Wireframe
350
30
  3
X-Ray
350
3C
  0
XRECORD
  5
24F
102
{ACAD_REACTORS
330
C
102
}
330
C
100
AcDbXrecord
280
     1
 90
        1
330
64
330
68
330
6A
  0
DICTIONARY
  5
1D6
102
{ACAD_REACTORS
330
C
102
}
330
C
100
AcDbDictionary
281
     1
  3
CANNOSCALE
350
1DC
  3
CMLEADERSTYLE
350
1D8
  3
CTABLESTYLE
350
1D7
  3
CVIEWDETAILSTYLE
350
1D9
  3
CVIEWSECTIONSTYLE
350
1DA
  3
LAYEREVAL
350
1DE
  3
LAYERNOTIFY
350
1DF
  3
LIGHTINGUNITS
350
1DD
  3
MSLTSCALE
350
1DB
  0
DICTIONARY
  5
20B
102
{ACAD_REACTORS
330
20A
102
}
330
20A
100
AcDbDictionary
281
     1
  0
XRECORD
  5
191
102
{ACAD_REACTORS
330
190
102
}
330
190
100
AcDbXrecord
280
     1
290
     1
  0
XRECORD
  5
193
102
{ACAD_REACTORS
330
192
102
}
330
192
100
AcDbXrecord
280
     1
290
     1
  0
XRECORD
  5
195
102
{ACAD_REACTORS
330
194
102
}
330
194
100
AcDbXrecord
280
     1
290
     1
  0
XRECORD
  5
197
102
{ACAD_REACTORS
330
196
102
}
330
196
100
AcDbXrecord
280
     1
290
     1
  0
XRECORD
  5
199
102
{ACAD_REACTORS
330
198
102
}
330
198
100
AcDbXrecord
280
     1
290
     1
  0
XRECORD
  5
19B
102
{ACAD_REACTORS
330
19A
102
}
330
19A
100
AcDbXrecord
280
     1
290
     1
  0
XRECORD
  5
19D
102
{ACAD_REACTORS
330
19C
102
}
330
19C
100
AcDbXrecord
280
     1
290
     1
  0
XRECORD
  5
19F
102
{ACAD_REACTORS
330
19E
102
}
330
19E
100
AcDbXrecord
280
     1
290
     1
  0
XRECORD
  5
1A1
102
{ACAD_REACTORS
330
1A0
102
}
330
1A0
100
AcDbXrecord
280
     1
290
     1
  0
XRECORD
  5
1A3
102
{ACAD_REACTORS
330
1A2
102
}
330
1A2
100
AcDbXrecord
280
     1
290
     1
  0
XRECORD
  5
1A5
102
{ACAD_REACTORS
330
1A4
102
}
330
1A4
100
AcDbXrecord
280
     1
290
     1
  0
XRECORD
  5
1A7
102
{ACAD_REACTORS
330
1A6
102
}
330
1A6
100
AcDbXrecord
280
     1
290
     1
  0
XRECORD
  5
1A9
102
{ACAD_REACTORS
330
1A8
102
}
330
1A8
100
AcDbXrecord
280
     1
290
     1
  0
XRECORD
  5
1AB
102
{ACAD_REACTORS
330
1AA
102
}
330
1AA
100
AcDbXrecord
280
     1
290
     1
  0
XRECORD
  5
1AD
102
{ACAD_REACTORS
330
1AC
102
}
330
1AC
100
AcDbXrecord
280
     1
290
     1
  0
XRECORD
  5
1AF
102
{ACAD_REACTORS
330
1AE
102
}
330
1AE
100
AcDbXrecord
280
     1
290
     1
  0
XRECORD
  5
1B1
102
{ACAD_REACTORS
330
1B0
102
}
330
1B0
100
AcDbXrecord
280
     1
290
     1
  0
XRECORD
  5
1B3
102
{ACAD_REACTORS
330
1B2
102
}
330
1B2
100
AcDbXrecord
280
     1
290
     1
  0
XRECORD
  5
1B5
102
{ACAD_REACTORS
330
1B4
102
}
330
1B4
100
AcDbXrecord
280
     1
290
     1
  0
XRECORD
  5
1B7
102
{ACAD_REACTORS
330
1B6
102
}
330
1B6
100
AcDbXrecord
280
     1
290
     1
  0
XRECORD
  5
1B9
102
{ACAD_REACTORS
330
1B8
102
}
330
1B8
100
AcDbXrecord
280
     1
290
     1
  0
XRECORD
  5
1BB
102
{ACAD_REACTORS
330
1BA
102
}
330
1BA
100
AcDbXrecord
280
     1
290
     1
  0
XRECORD
  5
1BD
102
{ACAD_REACTORS
330
1BC
102
}
330
1BC
100
AcDbXrecord
280
     1
290
     1
  0
XRECORD
  5
1BF
102
{ACAD_REACTORS
330
1BE
102
}
330
1BE
100
AcDbXrecord
280
     1
290
     1
  0
XRECORD
  5
1C1
102
{ACAD_REACTORS
330
1C0
102
}
330
1C0
100
AcDbXrecord
280
     1
290
     1
  0
XRECORD
  5
1C3
102
{ACAD_REACTORS
330
1C2
102
}
330
1C2
100
AcDbXrecord
280
     1
290
     1
  0
XRECORD
  5
1C5
102
{ACAD_REACTORS
330
1C4
102
}
330
1C4
100
AcDbXrecord
280
     1
290
     1
  0
XRECORD
  5
1C7
102
{ACAD_REACTORS
330
1C6
102
}
330
1C6
100
AcDbXrecord
280
     1
290
     1
  0
XRECORD
  5
1C9
102
{ACAD_REACTORS
330
1C8
102
}
330
1C8
100
AcDbXrecord
280
     1
290
     1
  0
XRECORD
  5
1CB
102
{ACAD_REACTORS
330
1CA
102
}
330
1CA
100
AcDbXrecord
280
     1
290
     1
  0
XRECORD
  5
1CD
102
{ACAD_REACTORS
330
1CC
102
}
330
1CC
100
AcDbXrecord
280
     1
290
     1
  0
XRECORD
  5
1CF
102
{ACAD_REACTORS
330
1CE
102
}
330
1CE
100
AcDbXrecord
280
     1
290
     1
  0
ACDBDETAILVIEWSTYLE
  5
6A
102
{ACAD_XDICTIONARY
360
1D3
102
}
102
{ACAD_REACTORS
330
69
102
}
330
69
100
AcDbModelDocViewStyle
 70
     0
  3
Imperial24
290
     0
100
AcDbDetailViewStyle
 70
     0
 71
     0
 90
        3
 71
     1
340
55
 62
   256
 40
0.24
340
0
 62
   256
 40
0.24
300

 40
0.36
280
     3
 71
     2
340
5C
 90
       25
 62
   256
 71
     3
340
55
 62
   256
 40
0.24
 90
        1
 40
0.75
 90
        1
300
%<\AcVar ViewType \f "%tc1">% %<\AcVar ViewDetailId>%\PSCALE %<\AcVar ViewScale \f "%sn">%
 71
     4
340
5C
 90
       25
 62
   256
340
5C
 90
       25
 62
   256
280
     0
  0
LAYOUT
  5
72
102
{ACAD_REACTORS
330
61
102
}
330
61
100
AcDbPlotSettings
  1

  2
Send To OneNote 2013
  4

  6

 40
0.0
 41
0.0
 42
0.0
 43
0.0
 44
0.0
 45
0.0
 46
0.0
 47
0.0
 48
0.0
 49
0.0
140
0.0
141
0.0
142
1.0
143
1.0
 70
  1712
 72
     0
 73
     0
 74
     0
  7

 75
     0
147
1.0
 76
     0
 77
     2
 78
   300
148
0.0
149
0.0
100
AcDbLayout
  1
Model
 70
     1
 71
     0
 10
0.0
 20
0.0
 11
12.0
 21
9.0
 12
0.0
 22
0.0
 32
0.0
 14
0.0
 24
0.0
 34
0.0
 15
0.0
 25
0.0
 35
0.0
146
0.0
 13
0.0
 23
0.0
 33
0.0
 16
1.0
 26
0.0
 36
0.0
 17
0.0
 27
1.0
 37
0.0
 76
     0
330
6F
331
93
  0
LAYOUT
  5
6E
102
{ACAD_REACTORS
330
61
102
}
330
61
100
AcDbPlotSettings
  1

  2
Send To OneNote 2013
  4

  6

 40
0.0
 41
0.0
 42
0.0
 43
0.0
 44
0.0
 45
0.0
 46
0.0
 47
0.0
 48
0.0
 49
0.0
140
0.0
141
0.0
142
1.0
143
1.0
 70
   688
 72
     0
 73
     0
 74
     5
  7

 75
    16
147
1.0
 76
     0
 77
     2
 78
   300
148
0.0
149
0.0
100
AcDbLayout
  1
レイアウト1
 70
     1
 71
     1
 10
0.0
 20
0.0
 11
12.0
 21
9.0
 12
0.0
 22
0.0
 32
0.0
 14
1.000000000000000E+20
 24
1.000000000000000E+20
 34
1.000000000000000E+20
 15
-1.000000000000000E+20
 25
-1.000000000000000E+20
 35
-1.000000000000000E+20
146
0.0
 13
0.0
 23
0.0
 33
0.0
 16
1.0
 26
0.0
 36
0.0
 17
0.0
 27
1.0
 37
0.0
 76
     0
330
6B
  0
MATERIAL
  5
19
102
{ACAD_XDICTIONARY
360
1A
102
}
102
{ACAD_REACTORS
330
10
102
}
330
10
100
AcDbMaterial
  1
ByBlock
 72
     0
 43
0.0208333333333333
 43
0.0
 43
0.0
 43
0.0
 43
0.0
 43
0.0208333333333333
 43
0.0
 43
0.0
 43
0.0
 43
0.0
 43
1.0
 43
0.0
 43
0.0
 43
0.0
 43
0.0
 43
1.0
 77
     0
 47
0.0208333333333333
 47
0.0
 47
0.0
 47
0.0
 47
0.0
 47
0.0208333333333333
 47
0.0
 47
0.0
 47
0.0
 47
0.0
 47
1.0
 47
0.0
 47
0.0
 47
0.0
 47
0.0
 47
1.0
171
     0
 49
0.0208333333333333
 49
0.0
 49
0.0
 49
0.0
 49
0.0
 49
0.0208333333333333
 49
0.0
 49
0.0
 49
0.0
 49
0.0
 49
1.0
 49
0.0
 49
0.0
 49
0.0
 49
0.0
 49
1.0
175
     0
142
0.0208333333333333
142
0.0
142
0.0
142
0.0
142
0.0
142
0.0208333333333333
142
0.0
142
0.0
142
0.0
142
0.0
142
1.0
142
0.0
142
0.0
142
0.0
142
0.0
142
1.0
179
     0
144
0.0208333333333333
144
0.0
144
0.0
144
0.0
144
0.0
144
0.0208333333333333
144
0.0
144
0.0
144
0.0
144
0.0
144
1.0
144
0.0
144
0.0
144
0.0
144
0.0
144
1.0
147
0.0208333333333333
147
0.0
147
0.0
147
0.0
147
0.0
147
0.0208333333333333
147
0.0
147
0.0
147
0.0
147
0.0
147
1.0
147
0.0
147
0.0
147
0.0
147
0.0
147
1.0
  0
MATERIAL
  5
11
102
{ACAD_XDICTIONARY
360
12
102
}
102
{ACAD_REACTORS
330
10
102
}
330
10
100
AcDbMaterial
  1
ByLayer
 72
     0
 43
0.0208333333333333
 43
0.0
 43
0.0
 43
0.0
 43
0.0
 43
0.0208333333333333
 43
0.0
 43
0.0
 43
0.0
 43
0.0
 43
1.0
 43
0.0
 43
0.0
 43
0.0
 43
0.0
 43
1.0
 77
     0
 47
0.0208333333333333
 47
0.0
 47
0.0
 47
0.0
 47
0.0
 47
0.0208333333333333
 47
0.0
 47
0.0
 47
0.0
 47
0.0
 47
1.0
 47
0.0
 47
0.0
 47
0.0
 47
0.0
 47
1.0
171
     0
 49
0.0208333333333333
 49
0.0
 49
0.0
 49
0.0
 49
0.0
 49
0.0208333333333333
 49
0.0
 49
0.0
 49
0.0
 49
0.0
 49
1.0
 49
0.0
 49
0.0
 49
0.0
 49
0.0
 49
1.0
175
     0
142
0.0208333333333333
142
0.0
142
0.0
142
0.0
142
0.0
142
0.0208333333333333
142
0.0
142
0.0
142
0.0
142
0.0
142
1.0
142
0.0
142
0.0
142
0.0
142
0.0
142
1.0
179
     0
144
0.0208333333333333
144
0.0
144
0.0
144
0.0
144
0.0
144
0.0208333333333333
144
0.0
144
0.0
144
0.0
144
0.0
144
1.0
144
0.0
144
0.0
144
0.0
144
0.0
144
1.0
147
0.0208333333333333
147
0.0
147
0.0
147
0.0
147
0.0
147
0.0208333333333333
147
0.0
147
0.0
147
0.0
147
0.0
147
1.0
147
0.0
147
0.0
147
0.0
147
0.0
147
1.0
  0
MATERIAL
  5
21
102
{ACAD_XDICTIONARY
360
22
102
}
102
{ACAD_REACTORS
330
10
102
}
330
10
100
AcDbMaterial
  1
Global
 72
     0
 43
0.0208333333333333
 43
0.0
 43
0.0
 43
0.0
 43
0.0
 43
0.0208333333333333
 43
0.0
 43
0.0
 43
0.0
 43
0.0
 43
1.0
 43
0.0
 43
0.0
 43
0.0
 43
0.0
 43
1.0
 77
     0
 47
0.0208333333333333
 47
0.0
 47
0.0
 47
0.0
 47
0.0
 47
0.0208333333333333
 47
0.0
 47
0.0
 47
0.0
 47
0.0
 47
1.0
 47
0.0
 47
0.0
 47
0.0
 47
0.0
 47
1.0
171
     0
 49
0.0208333333333333
 49
0.0
 49
0.0
 49
0.0
 49
0.0
 49
0.0208333333333333
 49
0.0
 49
0.0
 49
0.0
 49
0.0
 49
1.0
 49
0.0
 49
0.0
 49
0.0
 49
0.0
 49
1.0
175
     0
142
0.0208333333333333
142
0.0
142
0.0
142
0.0
142
0.0
142
0.0208333333333333
142
0.0
142
0.0
142
0.0
142
0.0
142
1.0
142
0.0
142
0.0
142
0.0
142
0.0
142
1.0
179
     0
144
0.0208333333333333
144
0.0
144
0.0
144
0.0
144
0.0
144
0.0208333333333333
144
0.0
144
0.0
144
0.0
144
0.0
144
1.0
144
0.0
144
0.0
144
0.0
144
0.0
144
1.0
147
0.0208333333333333
147
0.0
147
0.0
147
0.0
147
0.0
147
0.0208333333333333
147
0.0
147
0.0
147
0.0
147
0.0
147
1.0
147
0.0
147
0.0
147
0.0
147
0.0
147
1.0
  0
MLEADERSTYLE
  5
66
102
{ACAD_REACTORS
330
65
102
}
330
65
100
AcDbMLeaderStyle
179
     2
170
     2
171
     1
172
     0
 90
        2
 40
0.0
 41
0.0
173
     1
 91
-1056964608
340
5A
 92
       -2
290
     1
 42
0.09
291
     1
 43
0.36
  3
Standard
 44
0.18
300

342
55
174
     1
178
     6
175
     1
176
     0
 93
-1056964608
 45
0.18
292
     0
297
     0
 46
0.18
 94
-1056964608
 47
1.0
 49
1.0
140
1.0
293
     1
141
0.0
294
     1
177
     0
142
1.0
295
     0
296
     0
143
0.125
271
     0
272
     9
273
     9
298
     0
  0
MLINESTYLE
  5
5F
102
{ACAD_REACTORS
330
5E
102
}
330
5E
100
AcDbMlineStyle
  2
STANDARD
 70
     0
  3

 62
   256
 51
90.0
 52
90.0
 71
     2
 49
0.5
 62
   256
  6
BYLAYER
 49
-0.5
 62
   256
  6
BYLAYER
  0
ACDBPLACEHOLDER
  5
F
102
{ACAD_REACTORS
330
E
102
}
330
E
  0
SCALE
  5
43
102
{ACAD_REACTORS
330
42
102
}
330
42
100
AcDbScale
 70
     0
300
1:1
140
1.0
141
1.0
290
     1
  0
SCALE
  5
44
102
{ACAD_REACTORS
330
42
102
}
330
42
100
AcDbScale
 70
     0
300
1/128" = 1'-0"
140
0.0078125
141
12.0
290
     0
  0
SCALE
  5
45
102
{ACAD_REACTORS
330
42
102
}
330
42
100
AcDbScale
 70
     0
300
1/64" = 1'-0"
140
0.015625
141
12.0
290
     0
  0
SCALE
  5
46
102
{ACAD_REACTORS
330
42
102
}
330
42
100
AcDbScale
 70
     0
300
1/32" = 1'-0"
140
0.03125
141
12.0
290
     0
  0
SCALE
  5
47
102
{ACAD_REACTORS
330
42
102
}
330
42
100
AcDbScale
 70
     0
300
1/16" = 1'-0"
140
0.0625
141
12.0
290
     0
  0
SCALE
  5
48
102
{ACAD_REACTORS
330
42
102
}
330
42
100
AcDbScale
 70
     0
300
3/32" = 1'-0"
140
0.09375
141
12.0
290
     0
  0
SCALE
  5
49
102
{ACAD_REACTORS
330
42
102
}
330
42
100
AcDbScale
 70
     0
300
1/8" = 1'-0"
140
0.125
141
12.0
290
     0
  0
SCALE
  5
4A
102
{ACAD_REACTORS
330
42
102
}
330
42
100
AcDbScale
 70
     0
300
3/16" = 1'-0"
140
0.1875
141
12.0
290
     0
  0
SCALE
  5
4B
102
{ACAD_REACTORS
330
42
102
}
330
42
100
AcDbScale
 70
     0
300
1/4" = 1'-0"
140
0.25
141
12.0
290
     0
  0
SCALE
  5
4C
102
{ACAD_REACTORS
330
42
102
}
330
42
100
AcDbScale
 70
     0
300
3/8" = 1'-0"
140
0.375
141
12.0
290
     0
  0
SCALE
  5
4D
102
{ACAD_REACTORS
330
42
102
}
330
42
100
AcDbScale
 70
     0
300
1/2" = 1'-0"
140
0.5
141
12.0
290
     0
  0
SCALE
  5
4E
102
{ACAD_REACTORS
330
42
102
}
330
42
100
AcDbScale
 70
     0
300
3/4" = 1'-0"
140
0.75
141
12.0
290
     0
  0
SCALE
  5
4F
102
{ACAD_REACTORS
330
42
102
}
330
42
100
AcDbScale
 70
     0
300
1" = 1'-0"
140
1.0
141
12.0
290
     0
  0
SCALE
  5
50
102
{ACAD_REACTORS
330
42
102
}
330
42
100
AcDbScale
 70
     0
300
1-1/2" = 1'-0"
140
1.5
141
12.0
290
     0
  0
SCALE
  5
51
102
{ACAD_REACTORS
330
42
102
}
330
42
100
AcDbScale
 70
     0
300
3" = 1'-0"
140
3.0
141
12.0
290
     0
  0
SCALE
  5
52
102
{ACAD_REACTORS
330
42
102
}
330
42
100
AcDbScale
 70
     0
300
6" = 1'-0"
140
6.0
141
12.0
290
     0
  0
SCALE
  5
53
102
{ACAD_REACTORS
330
42
102
}
330
42
100
AcDbScale
 70
     0
300
1'-0" = 1'-0"
140
12.0
141
12.0
290
     0
  0
ACDBSECTIONVIEWSTYLE
  5
68
102
{ACAD_XDICTIONARY
360
1D1
102
}
102
{ACAD_REACTORS
330
67
102
}
330
67
100
AcDbModelDocViewStyle
 70
     0
  3
Imperial24
290
     0
100
AcDbSectionViewStyle
 70
     0
 71
     0
 90
       78
 71
     1
340
55
 62
   256
 40
0.24
340
0
340
0
 62
   256
 40
0.24
300
I, O, Q, S, X, Z
 40
0.48
 90
        3
 40
0.18
 90
        1
 71
     2
340
5C
 90
       25
 62
   256
340
5C
 90
       50
 62
   256
 40
0.24
 40
0.0
 40
0.24
 71
     3
340
55
 62
   256
 40
0.24
 90
        1
 40
0.75
 90
        1
300
%<\AcVar ViewType \f "%tc1">% %<\AcVar ViewSectionStartId>%-%<\AcVar ViewSectionEndId>%\PSCALE %<\AcVar ViewScale \f "%sn">%
 71
     4
 62
   256
 62
   257
300
ANSI31
 40
1.0
 90
        0
290
     0
290
     0
 90
        6
 40
0.0
 40
1.570796326794896
 40
0.2617993877991494
 40
1.308996938995747
 40
-0.2617993877991494
 40
1.832595714594046
  0
TABLESTYLE
  5
64
102
{ACAD_XDICTIONARY
360
24B
102
}
102
{ACAD_REACTORS
330
63
102
}
330
63
100
AcDbTableStyle
280
     0
  3
Standard
 70
     0
 71
     0
 40
0.06
 41
0.06
280
     0
281
     0
  7
Standard
140
0.18
170
     2
 62
     0
 63
     7
283
     0
 90
      512
 91
        0
  1

274
    -2
284
     1
 64
     0
275
    -2
285
     1
 65
     0
276
    -2
286
     1
 66
     0
277
    -2
287
     1
 67
     0
278
    -2
288
     1
 68
     0
279
    -2
289
     1
 69
     0
  7
Standard
140
0.25
170
     5
 62
     0
 63
     7
283
     0
 90
      512
 91
        0
  1

274
    -2
284
     1
 64
     0
275
    -2
285
     1
 65
     0
276
    -2
286
     1
 66
     0
277
    -2
287
     1
 67
     0
278
    -2
288
     1
 68
     0
279
    -2
289
     1
 69
     0
  7
Standard
140
0.18
170
     5
 62
     0
 63
     7
283
     0
 90
      512
 91
        0
  1

274
    -2
284
     1
 64
     0
275
    -2
285
     1
 65
     0
276
    -2
286
     1
 66
     0
277
    -2
287
     1
 67
     0
278
    -2
288
     1
 68
     0
279
    -2
289
     1
 69
     0
  0
VISUALSTYLE
  5
2F
102
{ACAD_REACTORS
330
29
102
}
330
29
100
AcDbVisualStyle
  2
2dWireframe
 70
     4
177
     3
291
     0
 70
    58
 90
        0
176
     1
 90
        2
176
     1
 90
        0
176
     1
 90
        0
176
     1
 40
0.6
176
     1
 40
30.0
176
     1
 62
     7
420
 16777215
176
     1
 90
        1
176
     1
 90
        4
176
     1
 62
     7
176
     1
 62
   257
176
     1
 90
        1
176
     1
 90
        1
176
     1
 40
1.0
176
     1
 90
        0
176
     1
 62
   257
176
     1
 40
1.0
176
     1
 90
        1
176
     1
 90
        6
176
     1
 90
        2
176
     1
 62
     7
176
     1
 90
        5
176
     1
 90
        0
176
     1
 90
        0
176
     1
290
     0
176
     1
 90
        1
176
     1
 40
0.0
176
     1
 90
        0
176
     1
290
     1
176
     1
290
     1
176
     1
290
     0
176
     1
290
     0
176
     1
290
     0
176
     1
290
     0
176
     1
290
     0
176
     1
290
     0
176
     1
290
     0
176
     1
 90
       50
176
     1
 40
0.0
176
     1
 40
1.0
176
     1
 90
        0
176
     1
 62
    18
420
        0
176
     1
 90
       50
176
     1
 90
        3
176
     1
 62
     5
420
      255
176
     1
290
     0
176
     1
 90
       50
176
     1
 90
       50
176
     1
 90
       50
176
     1
290
     0
176
     1
 90
       50
176
     1
 62
   256
176
     0
 40
1.0
176
     0
 90
        2
176
     1
  1
strokes_ogs.tif
176
     1
290
     0
176
     1
 40
1.0
176
     1
 40
1.0
176
     1
  0
VISUALSTYLE
  5
2E
102
{ACAD_REACTORS
330
29
102
}
330
29
100
AcDbVisualStyle
  2
Basic
 70
     7
177
     3
291
     1
 70
    58
 90
        1
176
     1
 90
        0
176
     1
 90
        1
176
     1
 90
        0
176
     1
 40
0.6
176
     1
 40
30.0
176
     1
 62
     7
420
 16777215
176
     1
 90
        0
176
     1
 90
        4
176
     1
 62
     7
176
     1
 62
   257
176
     1
 90
        1
176
     1
 90
        1
176
     1
 40
1.0
176
     1
 90
        8
176
     1
 62
     7
176
     1
 40
1.0
176
     1
 90
        1
176
     1
 90
        6
176
     1
 90
        2
176
     1
 62
     7
176
     1
 90
        5
176
     1
 90
        0
176
     1
 90
        0
176
     1
290
     0
176
     1
 90
        1
176
     1
 40
0.0
176
     1
 90
        0
176
     1
290
     0
176
     1
290
     1
176
     1
290
     1
176
     1
290
     0
176
     1
290
     0
176
     1
290
     0
176
     1
290
     0
176
     1
290
     0
176
     1
290
     0
176
     1
 90
       50
176
     1
 40
0.0
176
     1
 40
1.0
176
     1
 90
        0
176
     1
 62
    18
420
        0
176
     1
 90
       50
176
     1
 90
        3
176
     1
 62
     5
420
      255
176
     1
290
     0
176
     1
 90
       50
176
     1
 90
       50
176
     1
 90
       50
176
     1
290
     0
176
     1
 90
       50
176
     1
 62
   256
176
     0
 40
1.0
176
     0
 90
        2
176
     1
  1
strokes_ogs.tif
176
     1
290
     0
176
     1
 40
1.0
176
     1
 40
1.0
176
     1
  0
VISUALSTYLE
  5
35
102
{ACAD_REACTORS
330
29
102
}
330
29
100
AcDbVisualStyle
  2
Brighten
 70
    12
177
     3
291
     1
 70
    58
 90
        2
176
     1
 90
        2
176
     1
 90
        0
176
     1
 90
        0
176
     1
 40
0.6
176
     1
 40
30.0
176
     1
 62
     7
420
 16777215
176
     1
 90
        1
176
     1
 90
        4
176
     1
 62
     7
176
     1
 62
   257
176
     1
 90
        1
176
     1
 90
        1
176
     1
 40
1.0
176
     1
 90
        8
176
     1
 62
     7
176
     1
 40
1.0
176
     1
 90
        1
176
     1
 90
        6
176
     1
 90
        2
176
     1
 62
     7
176
     1
 90
        5
176
     1
 90
        0
176
     1
 90
        0
176
     1
290
     0
176
     1
 90
        1
176
     1
 40
50.0
176
     1
 90
        0
176
     1
290
     0
176
     1
290
     1
176
     1
290
     1
176
     1
290
     0
176
     1
290
     0
176
     1
290
     0
176
     1
290
     0
176
     1
290
     0
176
     1
290
     0
176
     1
 90
       50
176
     1
 40
0.0
176
     1
 40
1.0
176
     1
 90
        0
176
     1
 62
    18
420
        0
176
     1
 90
       50
176
     1
 90
        3
176
     1
 62
     5
420
      255
176
     1
290
     0
176
     1
 90
       50
176
     1
 90
       50
176
     1
 90
       50
176
     1
290
     0
176
     1
 90
       50
176
     1
 62
   256
176
     0
 40
1.0
176
     0
 90
        2
176
     1
  1
strokes_ogs.tif
176
     1
290
     0
176
     1
 40
1.0
176
     1
 40
1.0
176
     1
  0
VISUALSTYLE
  5
39
102
{ACAD_REACTORS
330
29
102
}
330
29
100
AcDbVisualStyle
  2
ColorChange
 70
    16
177
     3
291
     1
 70
    58
 90
        2
176
     1
 90
        2
176
     1
 90
        3
176
     1
 90
        0
176
     1
 40
0.6
176
     1
 40
30.0
176
     1
 62
     8
420
  8421504
176
     1
 90
        1
176
     1
 90
        4
176
     1
 62
     7
176
     1
 62
   257
176
     1
 90
        1
176
     1
 90
        1
176
     1
 40
1.0
176
     1
 90
        8
176
     1
 62
     8
420
  8421504
176
     1
 40
1.0
176
     1
 90
        1
176
     1
 90
        6
176
     1
 90
        2
176
     1
 62
     7
176
     1
 90
        5
176
     1
 90
        0
176
     1
 90
        0
176
     1
290
     0
176
     1
 90
        1
176
     1
 40
0.0
176
     1
 90
        0
176
     1
290
     0
176
     1
290
     1
176
     1
290
     1
176
     1
290
     0
176
     1
290
     0
176
     1
290
     0
176
     1
290
     0
176
     1
290
     0
176
     1
290
     0
176
     1
 90
       50
176
     1
 40
0.0
176
     1
 40
1.0
176
     1
 90
        0
176
     1
 62
    18
420
        0
176
     1
 90
       50
176
     1
 90
        3
176
     1
 62
     5
420
      255
176
     1
290
     0
176
     1
 90
       50
176
     1
 90
       50
176
     1
 90
       50
176
     1
290
     0
176
     1
 90
       50
176
     1
 62
   256
176
     0
 40
1.0
176
     0
 90
        2
176
     1
  1
strokes_ogs.tif
176
     1
290
     0
176
     1
 40
1.0
176
     1
 40
1.0
176
     1
  0
VISUALSTYLE
  5
32
102
{ACAD_REACTORS
330
29
102
}
330
29
100
AcDbVisualStyle
  2
Conceptual
 70
     9
177
     3
291
     0
 70
    58
 90
        3
176
     1
 90
        2
176
     1
 90
        0
176
     1
 90
        0
176
     1
 40
0.6
176
     1
 40
30.0
176
     1
 62
     7
420
 16777215
176
     1
 90
        2
176
     1
 90
        2
176
     1
 62
     7
176
     1
 62
   257
176
     1
 90
        1
176
     1
 90
        1
176
     1
 40
179.0
176
     1
 90
        8
176
     1
 62
     7
176
     1
 40
1.0
176
     1
 90
        1
176
     1
 90
        6
176
     1
 90
        2
176
     1
 62
     7
176
     1
 90
        3
176
     1
 90
        0
176
     1
 90
        0
176
     1
290
     0
176
     1
 90
        1
176
     1
 40
0.0
176
     1
 90
        0
176
     1
290
     0
176
     1
290
     1
176
     1
290
     1
176
     1
290
     0
176
     1
290
     0
176
     1
290
     0
176
     1
290
     0
176
     1
290
     0
176
     1
290
     0
176
     1
 90
       50
176
     1
 40
0.0
176
     1
 40
1.0
176
     1
 90
        0
176
     1
 62
    18
420
        0
176
     1
 90
       50
176
     1
 90
        3
176
     1
 62
     5
420
      255
176
     1
290
     0
176
     1
 90
       50
176
     1
 90
       50
176
     1
 90
       50
176
     1
290
     0
176
     1
 90
       50
176
     1
 62
   256
176
     0
 40
1.0
176
     0
 90
        2
176
     1
  1
strokes_ogs.tif
176
     1
290
     0
176
     1
 40
1.0
176
     1
 40
1.0
176
     1
  0
VISUALSTYLE
  5
34
102
{ACAD_REACTORS
330
29
102
}
330
29
100
AcDbVisualStyle
  2
Dim
 70
    11
177
     3
291
     1
 70
    58
 90
        2
176
     1
 90
        2
176
     1
 90
        0
176
     1
 90
        0
176
     1
 40
0.6
176
     1
 40
30.0
176
     1
 62
     7
420
 16777215
176
     1
 90
        1
176
     1
 90
        4
176
     1
 62
     7
176
     1
 62
   257
176
     1
 90
        1
176
     1
 90
        1
176
     1
 40
1.0
176
     1
 90
        8
176
     1
 62
     7
176
     1
 40
1.0
176
     1
 90
        1
176
     1
 90
        6
176
     1
 90
        2
176
     1
 62
     7
176
     1
 90
        5
176
     1
 90
        0
176
     1
 90
        0
176
     1
290
     0
176
     1
 90
        1
176
     1
 40
-50.0
176
     1
 90
        0
176
     1
290
     0
176
     1
290
     1
176
     1
290
     1
176
     1
290
     0
176
     1
290
     0
176
     1
290
     0
176
     1
290
     0
176
     1
290
     0
176
     1
290
     0
176
     1
 90
       50
176
     1
 40
0.0
176
     1
 40
1.0
176
     1
 90
        0
176
     1
 62
    18
420
        0
176
     1
 90
       50
176
     1
 90
        3
176
     1
 62
     5
420
      255
176
     1
290
     0
176
     1
 90
       50
176
     1
 90
       50
176
     1
 90
       50
176
     1
290
     0
176
     1
 90
       50
176
     1
 62
   256
176
     0
 40
1.0
176
     0
 90
        2
176
     1
  1
strokes_ogs.tif
176
     1
290
     0
176
     1
 40
1.0
176
     1
 40
1.0
176
     1
  0
VISUALSTYLE
  5
41
102
{ACAD_REACTORS
330
29
102
}
330
29
100
AcDbVisualStyle
  2
EdgeColorOff
 70
    22
177
     3
291
     1
 70
    58
 90
        2
176
     0
 90
        2
176
     0
 90
        0
176
     0
 90
        0
176
     0
 40
0.6
176
     0
 40
30.0
176
     0
 62
     7
420
 16777215
176
     0
 90
        1
176
     0
 90
        4
176
     0
 62
     7
176
     0
 62
   257
176
     0
 90
        1
176
     0
 90
        1
176
     0
 40
1.0
176
     0
 90
        8
176
     2
 62
     7
176
     0
 40
1.0
176
     0
 90
        1
176
     0
 90
        6
176
     0
 90
        2
176
     0
 62
     7
176
     0
 90
        5
176
     0
 90
        0
176
     0
 90
        0
176
     0
290
     0
176
     0
 90
        1
176
     0
 40
0.0
176
     0
 90
        0
176
     0
290
     0
176
     1
290
     1
176
     1
290
     1
176
     1
290
     0
176
     1
290
     0
176
     1
290
     0
176
     1
290
     0
176
     1
290
     0
176
     1
290
     0
176
     1
 90
       50
176
     0
 40
0.0
176
     0
 40
1.0
176
     0
 90
        0
176
     0
 62
    18
420
        0
176
     0
 90
       50
176
     0
 90
        3
176
     0
 62
     5
420
      255
176
     0
290
     0
176
     1
 90
       50
176
     0
 90
       50
176
     0
 90
       50
176
     0
290
     0
176
     1
 90
       50
176
     0
 62
   256
176
     0
 40
1.0
176
     0
 90
        2
176
     0
  1
strokes_ogs.tif
176
     0
290
     0
176
     1
 40
1.0
176
     0
 40
1.0
176
     0
  0
VISUALSTYLE
  5
38
102
{ACAD_REACTORS
330
29
102
}
330
29
100
AcDbVisualStyle
  2
Facepattern
 70
    15
177
     3
291
     1
 70
    58
 90
        2
176
     1
 90
        2
176
     1
 90
        0
176
     1
 90
        0
176
     1
 40
0.6
176
     1
 40
30.0
176
     1
 62
     7
420
 16777215
176
     1
 90
        1
176
     1
 90
        4
176
     1
 62
     7
176
     1
 62
   257
176
     1
 90
        1
176
     1
 90
        1
176
     1
 40
1.0
176
     1
 90
        8
176
     1
 62
     7
176
     1
 40
1.0
176
     1
 90
        1
176
     1
 90
        6
176
     1
 90
        2
176
     1
 62
     7
176
     1
 90
        5
176
     1
 90
        0
176
     1
 90
        0
176
     1
290
     0
176
     1
 90
        1
176
     1
 40
0.0
176
     1
 90
        0
176
     1
290
     0
176
     1
290
     1
176
     1
290
     1
176
     1
290
     0
176
     1
290
     0
176
     1
290
     0
176
     1
290
     0
176
     1
290
     0
176
     1
290
     0
176
     1
 90
       50
176
     1
 40
0.0
176
     1
 40
1.0
176
     1
 90
        0
176
     1
 62
    18
420
        0
176
     1
 90
       50
176
     1
 90
        3
176
     1
 62
     5
420
      255
176
     1
290
     0
176
     1
 90
       50
176
     1
 90
       50
176
     1
 90
       50
176
     1
290
     0
176
     1
 90
       50
176
     1
 62
   256
176
     0
 40
1.0
176
     0
 90
        2
176
     1
  1
strokes_ogs.tif
176
     1
290
     0
176
     1
 40
1.0
176
     1
 40
1.0
176
     1
  0
VISUALSTYLE
  5
2A
102
{ACAD_REACTORS
330
29
102
}
330
29
100
AcDbVisualStyle
  2
Flat
 70
     0
177
     3
291
     1
 70
    58
 90
        2
176
     1
 90
        1
176
     1
 90
        1
176
     1
 90
        2
176
     1
 40
0.6
176
     1
 40
30.0
176
     1
 62
     7
420
 16777215
176
     1
 90
        0
176
     1
 90
        0
176
     1
 62
     7
176
     1
 62
   257
176
     1
 90
        1
176
     1
 90
        1
176
     1
 40
1.0
176
     1
 90
        8
176
     1
 62
     7
176
     1
 40
1.0
176
     1
 90
        1
176
     1
 90
        6
176
     1
 90
        2
176
     1
 62
     7
176
     1
 90
        5
176
     1
 90
        0
176
     1
 90
        0
176
     1
290
     0
176
     1
 90
       13
176
     1
 40
0.0
176
     1
 90
        0
176
     1
290
     0
176
     1
290
     1
176
     1
290
     1
176
     1
290
     0
176
     1
290
     0
176
     1
290
     0
176
     1
290
     0
176
     1
290
     0
176
     1
290
     0
176
     1
 90
       50
176
     1
 40
0.0
176
     1
 40
1.0
176
     1
 90
        0
176
     1
 62
    18
420
        0
176
     1
 90
       50
176
     1
 90
        3
176
     1
 62
     5
420
      255
176
     1
290
     0
176
     1
 90
       50
176
     1
 90
       50
176
     1
 90
       50
176
     1
290
     0
176
     1
 90
       50
176
     1
 62
   256
176
     0
 40
1.0
176
     0
 90
        2
176
     1
  1
strokes_ogs.tif
176
     1
290
     0
176
     1
 40
1.0
176
     1
 40
1.0
176
     1
  0
VISUALSTYLE
  5
2B
102
{ACAD_REACTORS
330
29
102
}
330
29
100
AcDbVisualStyle
  2
FlatWithEdges
 70
     1
177
     3
291
     1
 70
    58
 90
        2
176
     1
 90
        1
176
     1
 90
        1
176
     1
 90
        2
176
     1
 40
0.6
176
     1
 40
30.0
176
     1
 62
     7
420
 16777215
176
     1
 90
        1
176
     1
 90
        0
176
     1
 62
     7
176
     1
 62
   257
176
     1
 90
        1
176
     1
 90
        1
176
     1
 40
1.0
176
     1
 90
        0
176
     1
 62
   257
176
     1
 40
1.0
176
     1
 90
        1
176
     1
 90
        6
176
     1
 90
        2
176
     1
 62
     7
176
     1
 90
        5
176
     1
 90
        0
176
     1
 90
        0
176
     1
290
     0
176
     1
 90
       13
176
     1
 40
0.0
176
     1
 90
        0
176
     1
290
     0
176
     1
290
     1
176
     1
290
     1
176
     1
290
     0
176
     1
290
     0
176
     1
290
     0
176
     1
290
     0
176
     1
290
     0
176
     1
290
     0
176
     1
 90
       50
176
     1
 40
0.0
176
     1
 40
1.0
176
     1
 90
        0
176
     1
 62
    18
420
        0
176
     1
 90
       50
176
     1
 90
        3
176
     1
 62
     5
420
      255
176
     1
290
     0
176
     1
 90
       50
176
     1
 90
       50
176
     1
 90
       50
176
     1
290
     0
176
     1
 90
       50
176
     1
 62
   256
176
     0
 40
1.0
176
     0
 90
        2
176
     1
  1
strokes_ogs.tif
176
     1
290
     0
176
     1
 40
1.0
176
     1
 40
1.0
176
     1
  0
VISUALSTYLE
  5
2C
102
{ACAD_REACTORS
330
29
102
}
330
29
100
AcDbVisualStyle
  2
Gouraud
 70
     2
177
     3
291
     1
 70
    58
 90
        2
176
     1
 90
        2
176
     1
 90
        1
176
     1
 90
        2
176
     1
 40
0.6
176
     1
 40
30.0
176
     1
 62
     7
420
 16777215
176
     1
 90
        0
176
     1
 90
        0
176
     1
 62
     7
176
     1
 62
   257
176
     1
 90
        1
176
     1
 90
        1
176
     1
 40
1.0
176
     1
 90
        0
176
     1
 62
     7
176
     1
 40
1.0
176
     1
 90
        1
176
     1
 90
        6
176
     1
 90
        2
176
     1
 62
     7
176
     1
 90
        5
176
     1
 90
        0
176
     1
 90
        0
176
     1
290
     0
176
     1
 90
       13
176
     1
 40
0.0
176
     1
 90
        0
176
     1
290
     0
176
     1
290
     1
176
     1
290
     1
176
     1
290
     0
176
     1
290
     0
176
     1
290
     0
176
     1
290
     0
176
     1
290
     0
176
     1
290
     0
176
     1
 90
       50
176
     1
 40
0.0
176
     1
 40
1.0
176
     1
 90
        0
176
     1
 62
    18
420
        0
176
     1
 90
       50
176
     1
 90
        3
176
     1
 62
     5
420
      255
176
     1
290
     0
176
     1
 90
       50
176
     1
 90
       50
176
     1
 90
       50
176
     1
290
     0
176
     1
 90
       50
176
     1
 62
   256
176
     0
 40
1.0
176
     0
 90
        2
176
     1
  1
strokes_ogs.tif
176
     1
290
     0
176
     1
 40
1.0
176
     1
 40
1.0
176
     1
  0
VISUALSTYLE
  5
2D
102
{ACAD_REACTORS
330
29
102
}
330
29
100
AcDbVisualStyle
  2
GouraudWithEdges
 70
     3
177
     3
291
     1
 70
    58
 90
        2
176
     1
 90
        2
176
     1
 90
        1
176
     1
 90
        2
176
     1
 40
0.6
176
     1
 40
30.0
176
     1
 62
     7
420
 16777215
176
     1
 90
        1
176
     1
 90
        0
176
     1
 62
     7
176
     1
 62
   257
176
     1
 90
        1
176
     1
 90
        1
176
     1
 40
1.0
176
     1
 90
        0
176
     1
 62
   257
176
     1
 40
1.0
176
     1
 90
        1
176
     1
 90
        6
176
     1
 90
        2
176
     1
 62
     7
176
     1
 90
        5
176
     1
 90
        0
176
     1
 90
        0
176
     1
290
     0
176
     1
 90
       13
176
     1
 40
0.0
176
     1
 90
        0
176
     1
290
     0
176
     1
290
     1
176
     1
290
     1
176
     1
290
     0
176
     1
290
     0
176
     1
290
     0
176
     1
290
     0
176
     1
290
     0
176
     1
290
     0
176
     1
 90
       50
176
     1
 40
0.0
176
     1
 40
1.0
176
     1
 90
        0
176
     1
 62
    18
420
        0
176
     1
 90
       50
176
     1
 90
        3
176
     1
 62
     5
420
      255
176
     1
290
     0
176
     1
 90
       50
176
     1
 90
       50
176
     1
 90
       50
176
     1
290
     0
176
     1
 90
       50
176
     1
 62
   256
176
     0
 40
1.0
176
     0
 90
        2
176
     1
  1
strokes_ogs.tif
176
     1
290
     0
176
     1
 40
1.0
176
     1
 40
1.0
176
     1
  0
VISUALSTYLE
  5
31
102
{ACAD_REACTORS
330
29
102
}
330
29
100
AcDbVisualStyle
  2
Hidden
 70
     6
177
     3
291
     0
 70
    58
 90
        1
176
     1
 90
        2
176
     1
 90
        2
176
     1
 90
        0
176
     1
 40
0.6
176
     1
 40
30.0
176
     1
 62
     7
420
 16777215
176
     1
 90
        2
176
     1
 90
        2
176
     1
 62
     7
176
     1
 62
   257
176
     1
 90
        2
176
     1
 90
        1
176
     1
 40
40.0
176
     1
 90
        0
176
     1
 62
   257
176
     1
 40
1.0
176
     1
 90
        1
176
     1
 90
        6
176
     1
 90
        2
176
     1
 62
     7
176
     1
 90
        3
176
     1
 90
        0
176
     1
 90
        0
176
     1
290
     0
176
     1
 90
        1
176
     1
 40
0.0
176
     1
 90
        0
176
     1
290
     0
176
     1
290
     1
176
     1
290
     1
176
     1
290
     0
176
     1
290
     0
176
     1
290
     0
176
     1
290
     0
176
     1
290
     0
176
     1
290
     0
176
     1
 90
       50
176
     1
 40
0.0
176
     1
 40
1.0
176
     1
 90
        0
176
     1
 62
    18
420
        0
176
     1
 90
       50
176
     1
 90
        3
176
     1
 62
     5
420
      255
176
     1
290
     0
176
     1
 90
       50
176
     1
 90
       50
176
     1
 90
       50
176
     1
290
     0
176
     1
 90
       50
176
     1
 62
   256
176
     0
 40
1.0
176
     0
 90
        2
176
     1
  1
strokes_ogs.tif
176
     1
290
     0
176
     1
 40
1.0
176
     1
 40
1.0
176
     1
  0
VISUALSTYLE
  5
3F
102
{ACAD_REACTORS
330
29
102
}
330
29
100
AcDbVisualStyle
  2
JitterOff
 70
    20
177
     3
291
     1
 70
    58
 90
        2
176
     0
 90
        2
176
     0
 90
        0
176
     0
 90
        0
176
     0
 40
0.6
176
     0
 40
30.0
176
     0
 62
     7
420
 16777215
176
     0
 90
        1
176
     0
 90
        4
176
     0
 62
     7
176
     0
 62
   257
176
     0
 90
        1
176
     0
 90
        1
176
     0
 40
1.0
176
     0
 90
       10
176
     2
 62
     7
176
     0
 40
1.0
176
     0
 90
        1
176
     0
 90
        6
176
     0
 90
        2
176
     0
 62
     7
176
     0
 90
        5
176
     0
 90
        0
176
     0
 90
        0
176
     0
290
     0
176
     0
 90
        1
176
     0
 40
0.0
176
     0
 90
        0
176
     0
290
     0
176
     1
290
     1
176
     1
290
     1
176
     1
290
     0
176
     1
290
     0
176
     1
290
     0
176
     1
290
     0
176
     1
290
     0
176
     1
290
     0
176
     1
 90
       50
176
     0
 40
0.0
176
     0
 40
1.0
176
     0
 90
        0
176
     0
 62
    18
420
        0
176
     0
 90
       50
176
     0
 90
        3
176
     0
 62
     5
420
      255
176
     0
290
     0
176
     1
 90
       50
176
     0
 90
       50
176
     0
 90
       50
176
     0
290
     0
176
     1
 90
       50
176
     0
 62
   256
176
     0
 40
1.0
176
     0
 90
        2
176
     0
  1
strokes_ogs.tif
176
     0
290
     0
176
     1
 40
1.0
176
     0
 40
1.0
176
     0
  0
VISUALSTYLE
  5
37
102
{ACAD_REACTORS
330
29
102
}
330
29
100
AcDbVisualStyle
  2
Linepattern
 70
    14
177
     3
291
     1
 70
    58
 90
        2
176
     1
 90
        2
176
     1
 90
        0
176
     1
 90
        0
176
     1
 40
0.6
176
     1
 40
30.0
176
     1
 62
     7
420
 16777215
176
     1
 90
        1
176
     1
 90
        4
176
     1
 62
     7
176
     1
 62
   257
176
     1
 90
        7
176
     1
 90
        7
176
     1
 40
1.0
176
     1
 90
        8
176
     1
 62
     7
176
     1
 40
1.0
176
     1
 90
        1
176
     1
 90
        6
176
     1
 90
        2
176
     1
 62
     7
176
     1
 90
        5
176
     1
 90
        0
176
     1
 90
        0
176
     1
290
     0
176
     1
 90
        1
176
     1
 40
0.0
176
     1
 90
        0
176
     1
290
     0
176
     1
290
     1
176
     1
290
     1
176
     1
290
     0
176
     1
290
     0
176
     1
290
     0
176
     1
290
     0
176
     1
290
     0
176
     1
290
     0
176
     1
 90
       50
176
     1
 40
0.0
176
     1
 40
1.0
176
     1
 90
        0
176
     1
 62
    18
420
        0
176
     1
 90
       50
176
     1
 90
        3
176
     1
 62
     5
420
      255
176
     1
290
     0
176
     1
 90
       50
176
     1
 90
       50
176
     1
 90
       50
176
     1
290
     0
176
     1
 90
       50
176
     1
 62
   256
176
     0
 40
1.0
176
     0
 90
        2
176
     1
  1
strokes_ogs.tif
176
     1
290
     0
176
     1
 40
1.0
176
     1
 40
1.0
176
     1
  0
VISUALSTYLE
  5
40
102
{ACAD_REACTORS
330
29
102
}
330
29
100
AcDbVisualStyle
  2
OverhangOff
 70
    21
177
     3
291
     1
 70
    58
 90
        2
176
     0
 90
        2
176
     0
 90
        0
176
     0
 90
        0
176
     0
 40
0.6
176
     0
 40
30.0
176
     0
 62
     7
420
 16777215
176
     0
 90
        1
176
     0
 90
        4
176
     0
 62
     7
176
     0
 62
   257
176
     0
 90
        1
176
     0
 90
        1
176
     0
 40
1.0
176
     0
 90
        9
176
     2
 62
     7
176
     0
 40
1.0
176
     0
 90
        1
176
     0
 90
        6
176
     0
 90
        2
176
     0
 62
     7
176
     0
 90
        5
176
     0
 90
        0
176
     0
 90
        0
176
     0
290
     0
176
     0
 90
        1
176
     0
 40
0.0
176
     0
 90
        0
176
     0
290
     0
176
     1
290
     1
176
     1
290
     1
176
     1
290
     0
176
     1
290
     0
176
     1
290
     0
176
     1
290
     0
176
     1
290
     0
176
     1
290
     0
176
     1
 90
       50
176
     0
 40
0.0
176
     0
 40
1.0
176
     0
 90
        0
176
     0
 62
    18
420
        0
176
     0
 90
       50
176
     0
 90
        3
176
     0
 62
     5
420
      255
176
     0
290
     0
176
     1
 90
       50
176
     0
 90
       50
176
     0
 90
       50
176
     0
290
     0
176
     1
 90
       50
176
     0
 62
   256
176
     0
 40
1.0
176
     0
 90
        2
176
     0
  1
strokes_ogs.tif
176
     0
290
     0
176
     1
 40
1.0
176
     0
 40
1.0
176
     0
  0
VISUALSTYLE
  5
33
102
{ACAD_REACTORS
330
29
102
}
330
29
100
AcDbVisualStyle
  2
Realistic
 70
     8
177
     3
291
     0
 70
    58
 90
        2
176
     1
 90
        3
176
     1
 90
        0
176
     1
 90
        2
176
     1
 40
0.6
176
     1
 40
30.0
176
     1
 62
     7
420
 16777215
176
     1
 90
        0
176
     1
 90
        0
176
     1
 62
     7
176
     1
 62
   257
176
     1
 90
        1
176
     1
 90
        1
176
     1
 40
1.0
176
     1
 90
        8
176
     1
 62
   257
176
     1
 40
1.0
176
     1
 90
        1
176
     1
 90
        6
176
     1
 90
        2
176
     1
 62
     7
176
     1
 90
        3
176
     1
 90
        0
176
     1
 90
        0
176
     1
290
     0
176
     1
 90
       13
176
     1
 40
0.0
176
     1
 90
        0
176
     1
290
     0
176
     1
290
     1
176
     1
290
     1
176
     1
290
     0
176
     1
290
     0
176
     1
290
     0
176
     1
290
     0
176
     1
290
     0
176
     1
290
     0
176
     1
 90
       50
176
     1
 40
0.0
176
     1
 40
1.0
176
     1
 90
        0
176
     1
 62
    18
420
        0
176
     1
 90
       50
176
     1
 90
        3
176
     1
 62
     5
420
      255
176
     1
290
     0
176
     1
 90
       50
176
     1
 90
       50
176
     1
 90
       50
176
     1
290
     0
176
     1
 90
       50
176
     1
 62
   256
176
     0
 40
1.0
176
     0
 90
        2
176
     1
  1
strokes_ogs.tif
176
     1
290
     0
176
     1
 40
1.0
176
     1
 40
1.0
176
     1
  0
VISUALSTYLE
  5
3E
102
{ACAD_REACTORS
330
29
102
}
330
29
100
AcDbVisualStyle
  2
Shaded
 70
    27
177
     3
291
     0
 70
    58
 90
        2
176
     1
 90
        2
176
     1
 90
        1
176
     1
 90
        2
176
     1
 40
0.6
176
     1
 40
30.0
176
     1
 62
     7
420
 16777215
176
     1
 90
        0
176
     1
 90
        4
176
     1
 62
     7
176
     1
 62
   257
176
     1
 90
        1
176
     1
 90
        1
176
     1
 40
1.0
176
     1
 90
        8
176
     1
 62
   257
176
     1
 40
1.0
176
     1
 90
        1
176
     1
 90
        6
176
     1
 90
        2
176
     1
 62
     8
420
  7895160
176
     1
 90
        3
176
     1
 90
        0
176
     1
 90
        0
176
     1
290
     0
176
     1
 90
        5
176
     1
 40
0.0
176
     1
 90
        0
176
     1
290
     0
176
     1
290
     1
176
     1
290
     1
176
     1
290
     0
176
     1
290
     0
176
     1
290
     0
176
     1
290
     0
176
     1
290
     0
176
     1
290
     0
176
     1
 90
       50
176
     1
 40
0.0
176
     1
 40
1.0
176
     1
 90
        0
176
     1
 62
    18
420
        0
176
     1
 90
       50
176
     1
 90
        3
176
     1
 62
     5
420
      255
176
     1
290
     0
176
     1
 90
       50
176
     1
 90
       50
176
     1
 90
       50
176
     1
290
     0
176
     1
 90
       50
176
     1
 62
   256
176
     0
 40
1.0
176
     0
 90
        2
176
     1
  1
strokes_ogs.tif
176
     1
290
     0
176
     1
 40
1.0
176
     1
 40
1.0
176
     1
  0
VISUALSTYLE
  5
3D
102
{ACAD_REACTORS
330
29
102
}
330
29
100
AcDbVisualStyle
  2
Shaded with edges
 70
    26
177
     3
291
     0
 70
    58
 90
        2
176
     1
 90
        2
176
     1
 90
        1
176
     1
 90
        2
176
     1
 40
0.6
176
     1
 40
30.0
176
     1
 62
     7
420
 16777215
176
     1
 90
        1
176
     1
 90
       10
176
     1
 62
     7
176
     1
 62
   257
176
     1
 90
        2
176
     1
 90
        1
176
     1
 40
1.0
176
     1
 90
        8
176
     1
 62
   257
176
     1
 40
1.0
176
     1
 90
        1
176
     1
 90
        6
176
     1
 90
        2
176
     1
 62
     7
176
     1
 90
        3
176
     1
 90
        0
176
     1
 90
        0
176
     1
290
     0
176
     1
 90
        5
176
     1
 40
0.0
176
     1
 90
        0
176
     1
290
     0
176
     1
290
     1
176
     1
290
     1
176
     1
290
     0
176
     1
290
     0
176
     1
290
     0
176
     1
290
     0
176
     1
290
     0
176
     1
290
     0
176
     1
 90
       50
176
     1
 40
0.0
176
     1
 40
1.0
176
     1
 90
        0
176
     1
 62
    18
420
        0
176
     1
 90
       50
176
     1
 90
        3
176
     1
 62
     5
420
      255
176
     1
290
     0
176
     1
 90
       50
176
     1
 90
       50
176
     1
 90
       50
176
     1
290
     0
176
     1
 90
       50
176
     1
 62
   256
176
     0
 40
1.0
176
     0
 90
        2
176
     1
  1
strokes_ogs.tif
176
     1
290
     0
176
     1
 40
1.0
176
     1
 40
1.0
176
     1
  0
VISUALSTYLE
  5
3A
102
{ACAD_REACTORS
330
29
102
}
330
29
100
AcDbVisualStyle
  2
Shades of Gray
 70
    23
177
     3
291
     0
 70
    58
 90
        2
176
     1
 90
        2
176
     1
 90
        3
176
     1
 90
        0
176
     1
 40
0.6
176
     1
 40
30.0
176
     1
 62
     7
420
 16777215
176
     1
 90
        2
176
     1
 90
        2
176
     1
 62
     7
176
     1
 62
     7
176
     1
 90
        1
176
     1
 90
        1
176
     1
 40
40.0
176
     1
 90
        8
176
     1
 62
     7
176
     1
 40
1.0
176
     1
 90
        1
176
     1
 90
        6
176
     1
 90
        2
176
     1
 62
     7
176
     1
 90
        3
176
     1
 90
        0
176
     1
 90
        0
176
     1
290
     0
176
     1
 90
        1
176
     1
 40
0.0
176
     1
 90
        0
176
     1
290
     0
176
     1
290
     1
176
     1
290
     1
176
     1
290
     0
176
     1
290
     0
176
     1
290
     0
176
     1
290
     0
176
     1
290
     0
176
     1
290
     0
176
     1
 90
       50
176
     1
 40
0.0
176
     1
 40
1.0
176
     1
 90
        0
176
     1
 62
    18
420
        0
176
     1
 90
       50
176
     1
 90
        3
176
     1
 62
     5
420
      255
176
     1
290
     0
176
     1
 90
       50
176
     1
 90
       50
176
     1
 90
       50
176
     1
290
     0
176
     1
 90
       50
176
     1
 62
   256
176
     0
 40
1.0
176
     0
 90
        2
176
     1
  1
strokes_ogs.tif
176
     1
290
     0
176
     1
 40
1.0
176
     1
 40
1.0
176
     1
  0
VISUALSTYLE
  5
3B
102
{ACAD_REACTORS
330
29
102
}
330
29
100
AcDbVisualStyle
  2
Sketchy
 70
    24
177
     3
291
     0
 70
    58
 90
        1
176
     1
 90
        2
176
     1
 90
        2
176
     1
 90
        0
176
     1
 40
0.6
176
     1
 40
30.0
176
     1
 62
     7
420
 16777215
176
     1
 90
        2
176
     1
 90
        2
176
     1
 62
     7
176
     1
 62
     7
176
     1
 90
        1
176
     1
 90
        1
176
     1
 40
40.0
176
     1
 90
       11
176
     1
 62
     7
176
     1
 40
1.0
176
     1
 90
        1
176
     1
 90
        6
176
     1
 90
        2
176
     1
 62
     7
176
     1
 90
        6
176
     1
 90
        0
176
     1
 90
        0
176
     1
290
     0
176
     1
 90
        1
176
     1
 40
0.0
176
     1
 90
        0
176
     1
290
     0
176
     1
290
     1
176
     1
290
     1
176
     1
290
     0
176
     1
290
     0
176
     1
290
     0
176
     1
290
     0
176
     1
290
     0
176
     1
290
     0
176
     1
 90
       50
176
     1
 40
0.0
176
     1
 40
1.0
176
     1
 90
        0
176
     1
 62
    18
420
        0
176
     1
 90
       50
176
     1
 90
        3
176
     1
 62
     5
420
      255
176
     1
290
     0
176
     1
 90
       50
176
     1
 90
       50
176
     1
 90
       50
176
     1
290
     0
176
     1
 90
       50
176
     1
 62
   256
176
     0
 40
1.0
176
     0
 90
        2
176
     1
  1
strokes_ogs.tif
176
     1
290
     0
176
     1
 40
1.0
176
     1
 40
1.0
176
     1
  0
VISUALSTYLE
  5
36
102
{ACAD_REACTORS
330
29
102
}
330
29
100
AcDbVisualStyle
  2
Thicken
 70
    13
177
     3
291
     1
 70
    58
 90
        2
176
     1
 90
        2
176
     1
 90
        0
176
     1
 90
        0
176
     1
 40
0.6
176
     1
 40
30.0
176
     1
 62
     7
420
 16777215
176
     1
 90
        1
176
     1
 90
        4
176
     1
 62
     7
176
     1
 62
   257
176
     1
 90
        1
176
     1
 90
        1
176
     1
 40
1.0
176
     1
 90
       12
176
     1
 62
     7
176
     1
 40
1.0
176
     1
 90
        1
176
     1
 90
        6
176
     1
 90
        2
176
     1
 62
     7
176
     1
 90
        5
176
     1
 90
        0
176
     1
 90
        0
176
     1
290
     0
176
     1
 90
        1
176
     1
 40
0.0
176
     1
 90
        0
176
     1
290
     0
176
     1
290
     1
176
     1
290
     1
176
     1
290
     0
176
     1
290
     0
176
     1
290
     0
176
     1
290
     0
176
     1
290
     0
176
     1
290
     0
176
     1
 90
       50
176
     1
 40
0.0
176
     1
 40
1.0
176
     1
 90
        0
176
     1
 62
    18
420
        0
176
     1
 90
       50
176
     1
 90
        3
176
     1
 62
     5
420
      255
176
     1
290
     0
176
     1
 90
       50
176
     1
 90
       50
176
     1
 90
       50
176
     1
290
     0
176
     1
 90
       50
176
     1
 62
   256
176
     0
 40
1.0
176
     0
 90
        2
176
     1
  1
strokes_ogs.tif
176
     1
290
     0
176
     1
 40
1.0
176
     1
 40
1.0
176
     1
  0
VISUALSTYLE
  5
30
102
{ACAD_REACTORS
330
29
102
}
330
29
100
AcDbVisualStyle
  2
Wireframe
 70
     5
177
     3
291
     0
 70
    58
 90
        0
176
     1
 90
        2
176
     1
 90
        0
176
     1
 90
        0
176
     1
 40
0.6
176
     1
 40
30.0
176
     1
 62
     7
420
 16777215
176
     1
 90
        1
176
     1
 90
        4
176
     1
 62
     7
176
     1
 62
   257
176
     1
 90
        1
176
     1
 90
        1
176
     1
 40
1.0
176
     1
 90
        0
176
     1
 62
   257
176
     1
 40
1.0
176
     1
 90
        1
176
     1
 90
        6
176
     1
 90
        2
176
     1
 62
     7
176
     1
 90
        3
176
     1
 90
        0
176
     1
 90
        0
176
     1
290
     0
176
     1
 90
        1
176
     1
 40
0.0
176
     1
 90
        0
176
     1
290
     0
176
     1
290
     1
176
     1
290
     1
176
     1
290
     0
176
     1
290
     0
176
     1
290
     0
176
     1
290
     0
176
     1
290
     0
176
     1
290
     0
176
     1
 90
       50
176
     1
 40
0.0
176
     1
 40
1.0
176
     1
 90
        0
176
     1
 62
    18
420
        0
176
     1
 90
       50
176
     1
 90
        3
176
     1
 62
     5
420
      255
176
     1
290
     0
176
     1
 90
       50
176
     1
 90
       50
176
     1
 90
       50
176
     1
290
     0
176
     1
 90
       50
176
     1
 62
   256
176
     0
 40
1.0
176
     0
 90
        2
176
     1
  1
strokes_ogs.tif
176
     1
290
     0
176
     1
 40
1.0
176
     1
 40
1.0
176
     1
  0
VISUALSTYLE
  5
3C
102
{ACAD_REACTORS
330
29
102
}
330
29
100
AcDbVisualStyle
  2
X-Ray
 70
    25
177
     3
291
     0
 70
    58
 90
        2
176
     1
 90
        2
176
     1
 90
        1
176
     1
 90
        1
176
     1
 40
0.5
176
     1
 40
30.0
176
     1
 62
     7
420
 16777215
176
     1
 90
        1
176
     1
 90
        0
176
     1
 62
     7
176
     1
 62
   257
176
     1
 90
        1
176
     1
 90
        1
176
     1
 40
1.0
176
     1
 90
        8
176
     1
 62
     7
176
     1
 40
1.0
176
     1
 90
        1
176
     1
 90
        6
176
     1
 90
        2
176
     1
 62
     7
176
     1
 90
        3
176
     1
 90
        0
176
     1
 90
        0
176
     1
290
     0
176
     1
 90
       13
176
     1
 40
0.0
176
     1
 90
        0
176
     1
290
     0
176
     1
290
     1
176
     1
290
     1
176
     1
290
     0
176
     1
290
     0
176
     1
290
     0
176
     1
290
     0
176
     1
290
     0
176
     1
290
     0
176
     1
 90
       50
176
     1
 40
0.0
176
     1
 40
1.0
176
     1
 90
        0
176
     1
 62
    18
420
        0
176
     1
 90
       50
176
     1
 90
        3
176
     1
 62
     5
420
      255
176
     1
290
     0
176
     1
 90
       50
176
     1
 90
       50
176
     1
 90
       50
176
     1
290
     0
176
     1
 90
       50
176
     1
 62
   256
176
     0
 40
1.0
176
     0
 90
        2
176
     1
  1
strokes_ogs.tif
176
     1
290
     0
176
     1
 40
1.0
176
     1
 40
1.0
176
     1
  0
DICTIONARYVAR
  5
1DC
102
{ACAD_REACTORS
330
1D6
102
}
330
1D6
100
DictionaryVariables
280
     0
  1
1:1
  0
DICTIONARYVAR
  5
1D8
102
{ACAD_REACTORS
330
1D6
102
}
330
1D6
100
DictionaryVariables
280
     0
  1
STANDARD
  0
DICTIONARYVAR
  5
1D7
102
{ACAD_REACTORS
330
1D6
102
}
330
1D6
100
DictionaryVariables
280
     0
  1
STANDARD
  0
DICTIONARYVAR
  5
1D9
102
{ACAD_REACTORS
330
1D6
102
}
330
1D6
100
DictionaryVariables
280
     0
  1
Imperial24
  0
DICTIONARYVAR
  5
1DA
102
{ACAD_REACTORS
330
1D6
102
}
330
1D6
100
DictionaryVariables
280
     0
  1
Imperial24
  0
DICTIONARYVAR
  5
1DE
102
{ACAD_REACTORS
330
1D6
102
}
330
1D6
100
DictionaryVariables
280
     0
  1
1
  0
DICTIONARYVAR
  5
1DF
102
{ACAD_REACTORS
330
1D6
102
}
330
1D6
100
DictionaryVariables
280
     0
  1
15
  0
DICTIONARYVAR
  5
1DD
102
{ACAD_REACTORS
330
1D6
102
}
330
1D6
100
DictionaryVariables
280
     0
  1
0
  0
DICTIONARYVAR
  5
1DB
102
{ACAD_REACTORS
330
1D6
102
}
330
1D6
100
DictionaryVariables
280
     0
  1
0
  0
DICTIONARY
  5
1D3
330
6A
100
AcDbDictionary
280
     1
281
     1
  3
ACAD_XREC_ROUNDTRIP
360
24E
  0
DICTIONARY
  5
1A
330
19
100
AcDbDictionary
280
     1
281
     1
  3
BUMPTILE
360
1C
  3
DIFFUSETILE
360
1B
  3
OPACITYTILE
360
1F
  3
REFLECTIONTILE
360
1E
  3
REFRACTIONTILE
360
20
  3
SPECULARTILE
360
1D
  0
DICTIONARY
  5
12
330
11
100
AcDbDictionary
280
     1
281
     1
  3
BUMPTILE
360
14
  3
DIFFUSETILE
360
13
  3
OPACITYTILE
360
17
  3
REFLECTIONTILE
360
16
  3
REFRACTIONTILE
360
18
  3
SPECULARTILE
360
15
  0
DICTIONARY
  5
22
330
21
100
AcDbDictionary
280
     1
281
     1
  3
BUMPTILE
360
24
  3
DIFFUSETILE
360
23
  3
OPACITYTILE
360
27
  3
REFLECTIONTILE
360
26
  3
REFRACTIONTILE
360
28
  3
SPECULARTILE
360
25
  0
DICTIONARY
  5
1D1
330
68
100
AcDbDictionary
280
     1
281
     1
  3
ACAD_XREC_ROUNDTRIP
360
24D
  0
DICTIONARY
  5
24B
330
64
100
AcDbDictionary
280
     1
281
     1
  3
ACAD_ROUNDTRIP_2008_TABLESTYLE_CELLSTYLEMAP
360
24C
  0
XRECORD
  5
24E
102
{ACAD_REACTORS
330
1D3
102
}
330
1D3
100
AcDbXrecord
280
     1
102
DISPLAYNAME
  1
Imperial24
102
FLAGS
 90
        0
  0
XRECORD
  5
1C
102
{ACAD_REACTORS
330
1A
102
}
330
1A
100
AcDbXrecord
280
     1
270
     1
271
     1
  0
XRECORD
  5
1B
102
{ACAD_REACTORS
330
1A
102
}
330
1A
100
AcDbXrecord
280
     1
270
     1
271
     1
  0
XRECORD
  5
1F
102
{ACAD_REACTORS
330
1A
102
}
330
1A
100
AcDbXrecord
280
     1
270
     1
271
     1
  0
XRECORD
  5
1E
102
{ACAD_REACTORS
330
1A
102
}
330
1A
100
AcDbXrecord
280
     1
270
     1
271
     1
  0
XRECORD
  5
20
102
{ACAD_REACTORS
330
1A
102
}
330
1A
100
AcDbXrecord
280
     1
270
     1
271
     1
  0
XRECORD
  5
1D
102
{ACAD_REACTORS
330
1A
102
}
330
1A
100
AcDbXrecord
280
     1
270
     1
271
     1
  0
XRECORD
  5
14
102
{ACAD_REACTORS
330
12
102
}
330
12
100
AcDbXrecord
280
     1
270
     1
271
     1
  0
XRECORD
  5
13
102
{ACAD_REACTORS
330
12
102
}
330
12
100
AcDbXrecord
280
     1
270
     1
271
     1
  0
XRECORD
  5
17
102
{ACAD_REACTORS
330
12
102
}
330
12
100
AcDbXrecord
280
     1
270
     1
271
     1
  0
XRECORD
  5
16
102
{ACAD_REACTORS
330
12
102
}
330
12
100
AcDbXrecord
280
     1
270
     1
271
     1
  0
XRECORD
  5
18
102
{ACAD_REACTORS
330
12
102
}
330
12
100
AcDbXrecord
280
     1
270
     1
271
     1
  0
XRECORD
  5
15
102
{ACAD_REACTORS
330
12
102
}
330
12
100
AcDbXrecord
280
     1
270
     1
271
     1
  0
XRECORD
  5
24
102
{ACAD_REACTORS
330
22
102
}
330
22
100
AcDbXrecord
280
     1
270
     1
271
     1
  0
XRECORD
  5
23
102
{ACAD_REACTORS
330
22
102
}
330
22
100
AcDbXrecord
280
     1
270
     1
271
     1
  0
XRECORD
  5
27
102
{ACAD_REACTORS
330
22
102
}
330
22
100
AcDbXrecord
280
     1
270
     1
271
     1
  0
XRECORD
  5
26
102
{ACAD_REACTORS
330
22
102
}
330
22
100
AcDbXrecord
280
     1
270
     1
271
     1
  0
XRECORD
  5
28
102
{ACAD_REACTORS
330
22
102
}
330
22
100
AcDbXrecord
280
     1
270
     1
271
     1
  0
XRECORD
  5
25
102
{ACAD_REACTORS
330
22
102
}
330
22
100
AcDbXrecord
280
     1
270
     1
271
     1
  0
XRECORD
  5
24D
102
{ACAD_REACTORS
330
1D1
102
}
330
1D1
100
AcDbXrecord
280
     1
102
DISPLAYNAME
  1
Imperial24
102
FLAGS
 90
        0
  0
CELLSTYLEMAP
  5
24C
102
{ACAD_REACTORS
330
24B
102
}
330
24B
100
AcDbCellStyleMap
 90
        3
300
CELLSTYLE
  1
TABLEFORMAT_BEGIN
 90
        5
170
     1
 91
        0
 92
    32768
 62
   257
 93
        1
300
CONTENTFORMAT
  1
CONTENTFORMAT_BEGIN
 90
        0
 91
        0
 92
      512
 93
        0
300

 40
0.0
140
1.0
 94
        5
 62
     0
340
55
144
0.25
309
CONTENTFORMAT_END
171
     0
 94
        0
309
TABLEFORMAT_END
  1
CELLSTYLE_BEGIN
 90
        1
 91
        1
300
_TITLE
309
CELLSTYLE_END
300
CELLSTYLE
  1
TABLEFORMAT_BEGIN
 90
        5
170
     1
 91
        0
 92
        0
 62
   257
 93
        1
300
CONTENTFORMAT
  1
CONTENTFORMAT_BEGIN
 90
        0
 91
        0
 92
      512
 93
        0
300

 40
0.0
140
1.0
 94
        5
 62
     0
340
55
144
0.18
309
CONTENTFORMAT_END
171
     0
 94
        0
309
TABLEFORMAT_END
  1
CELLSTYLE_BEGIN
 90
        2
 91
        1
300
_HEADER
309
CELLSTYLE_END
300
CELLSTYLE
  1
TABLEFORMAT_BEGIN
 90
        5
170
     1
 91
        0
 92
        0
 62
   257
 93
        1
300
CONTENTFORMAT
  1
CONTENTFORMAT_BEGIN
 90
        0
 91
        0
 92
      512
 93
        0
300

 40
0.0
140
1.0
 94
        2
 62
     0
340
55
144
0.18
309
CONTENTFORMAT_END
171
     0
 94
        0
309
TABLEFORMAT_END
  1
CELLSTYLE_BEGIN
 90
        3
 91
        2
300
_DATA
309
CELLSTYLE_END
  0
ENDSEC
  0
SECTION
  2
ACDSDATA
 70
     2
 71
     8
  0
ACDSSCHEMA
 90
        0
  1
AcDb_Thumbnail_Schema
  2
AcDbDs::ID
280
    10
 91
        8
  2
Thumbnail_Data
280
    15
 91
        0
101
ACDSRECORD
 95
        0
 90
        1
  2
AcDbDs::TreatedAsObjectData
280
     1
291
     1
101
ACDSRECORD
 95
        0
 90
        2
  2
AcDbDs::Legacy
280
     1
291
     1
101
ACDSRECORD
  1
AcDbDs::ID
 90
        3
  2
AcDs:Indexable
280
     1
291
     1
101
ACDSRECORD
  1
AcDbDs::ID
 90
        4
  2
AcDbDs::HandleAttribute
280
     7
282
     1
  0
ACDSSCHEMA
 90
        1
  1
AcDbDs::TreatedAsObjectDataSchema
  2
AcDbDs::TreatedAsObjectData
280
     1
 91
        0
  0
ACDSSCHEMA
 90
        2
  1
AcDbDs::LegacySchema
  2
AcDbDs::Legacy
280
     1
 91
        0
  0
ACDSSCHEMA
 90
        3
  1
AcDbDs::IndexedPropertySchema
  2
AcDs:Indexable
280
     1
 91
        0
  0
ACDSSCHEMA
 90
        4
  1
AcDbDs::HandleAttributeSchema
  2
AcDbDs::HandleAttribute
280
     7
 91
        1
284
     1
  0
ACDSRECORD
 90
        0
  2
AcDbDs::ID
280
    10
320
72
  2
Thumbnail_Data
280
    15
 94
     1071
310
89504E470D0A1A0A0000000D49484452000001000000006608030000001376BFA700000300504C5445212830000000C8C8C80000000000000000000000000000000000000000000000000000330000660000990000CC0000FF0033000033330033660033990033CC0033FF0066000066330066660066990066CC0066FF0099
310
000099330099660099990099CC0099FF00CC0000CC3300CC6600CC9900CCCC00CCFF00FF0000FF3300FF6600FF9900FFCC00FFFF3300003300333300663300993300CC3300FF3333003333333333663333993333CC3333FF3366003366333366663366993366CC3366FF3399003399333399663399993399CC3399FF33CC00
310
33CC3333CC6633CC9933CCCC33CCFF33FF0033FF3333FF6633FF9933FFCC33FFFF6600006600336600666600996600CC6600FF6633006633336633666633996633CC6633FF6666006666336666666666996666CC6666FF6699006699336699666699996699CC6699FF66CC0066CC3366CC6666CC9966CCCC66CCFF66FF0066
310
FF3366FF6666FF9966FFCC66FFFF9900009900339900669900999900CC9900FF9933009933339933669933999933CC9933FF9966009966339966669966999966CC9966FF9999009999339999669999999999CC9999FF99CC0099CC3399CC6699CC9999CCCC99CCFF99FF0099FF3399FF6699FF9999FFCC99FFFFCC0000CC00
310
33CC0066CC0099CC00CCCC00FFCC3300CC3333CC3366CC3399CC33CCCC33FFCC6600CC6633CC6666CC6699CC66CCCC66FFCC9900CC9933CC9966CC9999CC99CCCC99FFCCCC00CCCC33CCCC66CCCC99CCCCCCCCCCFFCCFF00CCFF33CCFF66CCFF99CCFFCCCCFFFFFF0000FF0033FF0066FF0099FF00CCFF00FFFF3300FF3333
310
FF3366FF3399FF33CCFF33FFFF6600FF6633FF6666FF6699FF66CCFF66FFFF9900FF9933FF9966FF9999FF99CCFF99FFFFCC00FFCC33FFCC66FFCC99FFCCCCFFCCFFFFFF00FFFF33FFFF66FFFF99FFFFCCFFFFFF0000000D0D0D1A1A1A2828283535354343435050505D5D5D6B6B6B787878868686939393A1A1A1AEAEAEBB
310
BBBBC9C9C9D6D6D6E4E4E4F1F1F1FFFFFF000000000000000000000000000000000000000000000000000000000000B21171F6000000EA4944415478DAEDD9EB0D82301805503660FF6598E91B411389EF22D0625A7ACE5F23706F4BA9320C000000000000000C710A39059C621415A00005244DDDCF80E9A6FB5B2051436F
310
6BC0C774E874117CD4D0750157319DC21C639C25E3DE357C077C0D12AF137B7C32A41F00AD149018BBB5315A2C6045E44D31160E16AD46DE1BE3FD2C5147E229F368B1FB1222BD3E5636C8076DE823F9A0585241E4D2056CBBF2B23D15984FB1FBBC913B90C90F0B34B4FEAB193360B3F73D588E5FFBBB3FFC29788A9F02E5
310
D70005284001DD14109DBF1A8AA3A740F6ABAB2A520000000000000000000000D4E602C8F633BF99475E390000000049454E44AE426082
  0
ENDSEC
  0
EOF
