  0
SECTION
  2
HEADER
  9
$ACADVER
  1
AC1024
  9
$ACADMAINTVER
 70
     6
  9
$DWGCODEPAGE
  3
ANSI_1252
  9
$INSBASE
 10
0.0
 20
0.0
 30
0.0
  9
$EXTMIN
 10
-49628.5659153
 20
-20226.4355913
 30
0.0
  9
$EXTMAX
 10
2991675.78717
 20
2988390.65006
 30
0.0
  9
$LIMMIN
 10
-49628.5659153
 20
-20226.4355913
  9
$LIMMAX
 10
2991675.78717
 20
2988390.65006
  9
$ORTHOMODE
 70
     0
  9
$REGENMODE
 70
     1
  9
$FILLMODE
 70
     1
  9
$QTEXTMODE
 70
     0
  9
$MIRRTEXT
 70
     1
  9
$LTSCALE
 40
1.0
  9
$ATTMODE
 70
     1
  9
$TEXTSIZE
 40
2.5
  9
$TRACEWID
 40
1.0
  9
$TEXTSTYLE
  7
Standard
  9
$CLAYER
  8
Outline
  9
$CELTYPE
  6
ByLayer
  9
$CECOLOR
 62
   256
  9
$CELTSCALE
 40
1.0
  9
$DISPSILH
 70
     0
  9
$DIMSCALE
 40
1.0
  9
$DIMASZ
 40
2.5
  9
$DIMEXO
 40
0.625
  9
$DIMDLI
 40
3.75
  9
$DIMRND
 40
0.0
  9
$DIMDLE
 40
0.0
  9
$DIMEXE
 40
1.25
  9
$DIMTP
 40
0.0
  9
$DIMTM
 40
0.0
  9
$DIMTXT
 40
2.5
  9
$DIMCEN
 40
2.5
  9
$DIMTSZ
 40
0.0
  9
$DIMTOL
 70
     0
  9
$DIMLIM
 70
     0
  9
$DIMTIH
 70
     0
  9
$DIMTOH
 70
     0
  9
$DIMSE1
 70
     0
  9
$DIMSE2
 70
     0
  9
$DIMTAD
 70
     1
  9
$DIMZIN
 70
     8
  9
$DIMBLK
  1

  9
$DIMASO
 70
     1
  9
$DIMSHO
 70
     1
  9
$DIMPOST
  1

  9
$DIMAPOST
  1

  9
$DIMALT
 70
     0
  9
$DIMALTD
 70
     3
  9
$DIMALTF
 40
0.03937007874016
  9
$DIMLFAC
 40
1.0
  9
$DIMTOFL
 70
     1
  9
$DIMTVP
 40
0.0
  9
$DIMTIX
 70
     0
  9
$DIMSOXD
 70
     0
  9
$DIMSAH
 70
     0
  9
$DIMBLK1
  1

  9
$DIMBLK2
  1

  9
$DIMSTYLE
  2
ISO-25
  9
$DIMCLRD
 70
     0
  9
$DIMCLRE
 70
     0
  9
$DIMCLRT
 70
     0
  9
$DIMTFAC
 40
1.0
  9
$DIMGAP
 40
0.625
  9
$DIMJUST
 70
     0
  9
$DIMSD1
 70
     0
  9
$DIMSD2
 70
     0
  9
$DIMTOLJ
 70
     0
  9
$DIMTZIN
 70
     8
  9
$DIMALTZ
 70
     0
  9
$DIMALTTZ
 70
     0
  9
$DIMUPT
 70
     0
  9
$DIMDEC
 70
     2
  9
$DIMTDEC
 70
     2
  9
$DIMALTU
 70
     2
  9
$DIMALTTD
 70
     3
  9
$DIMTXSTY
  7
Standard
  9
$DIMAUNIT
 70
     0
  9
$DIMADEC
 70
     0
  9
$DIMALTRND
 40
0.0
  9
$DIMAZIN
 70
     0
  9
$DIMDSEP
 70
    44
  9
$DIMATFIT
 70
     3
  9
$DIMFRAC
 70
     0
  9
$DIMLDRBLK
  1

  9
$DIMLUNIT
 70
     2
  9
$DIMLWD
 70
    -2
  9
$DIMLWE
 70
    -2
  9
$DIMTMOVE
 70
     0
  9
$DIMFXL
 40
1.0
  9
$DIMFXLON
 70
     0
  9
$DIMJOGANG
 40
0.7853981633974483
  9
$DIMTFILL
 70
     0
  9
$DIMTFILLCLR
 70
     0
  9
$DIMARCSYM
 70
     0
  9
$DIMLTYPE
  6

  9
$DIMLTEX1
  6

  9
$DIMLTEX2
  6

  9
$DIMTXTDIRECTION
 70
     0
  9
$LUNITS
 70
     2
  9
$LUPREC
 70
     4
  9
$SKETCHINC
 40
1.0
  9
$FILLETRAD
 40
10.0
  9
$AUNITS
 70
     0
  9
$AUPREC
 70
     0
  9
$MENU
  1
.
  9
$ELEVATION
 40
0.0
  9
$PELEVATION
 40
0.0
  9
$THICKNESS
 40
0.0
  9
$LIMCHECK
 70
     0
  9
$CHAMFERA
 40
10.0
  9
$CHAMFERB
 40
10.0
  9
$CHAMFERC
 40
20.0
  9
$CHAMFERD
 40
0.0
  9
$SKPOLY
 70
     0
  9
$TDCREATE
 40
2456231.748506945
  9
$TDUCREATE
 40
2456231.373506945
  9
$TDUPDATE
 40
2456231.748506945
  9
$TDUUPDATE
 40
2456231.373506945
  9
$TDINDWG
 40
0.0000000116
  9
$TDUSRTIMER
 40
0.0000000116
  9
$USRTIMER
 70
     1
  9
$ANGBASE
 50
0.0
  9
$ANGDIR
 70
     0
  9
$PDMODE
 70
     0
  9
$PDSIZE
 40
0.0
  9
$PLINEWID
 40
0.0
  9
$SPLFRAME
 70
     0
  9
$SPLINETYPE
 70
     6
  9
$SPLINESEGS
 70
     8
  9
$HANDSEED
  5
6F
  9
$SURFTAB1
 70
     6
  9
$SURFTAB2
 70
     6
  9
$SURFTYPE
 70
     6
  9
$SURFU
 70
     6
  9
$SURFV
 70
     6
  9
$UCSBASE
  2

  9
$UCSNAME
  2

  9
$UCSORG
 10
0.0
 20
0.0
 30
0.0
  9
$UCSXDIR
 10
1.0
 20
0.0
 30
0.0
  9
$UCSYDIR
 10
0.0
 20
1.0
 30
0.0
  9
$UCSORTHOREF
  2

  9
$UCSORTHOVIEW
 70
     0
  9
$UCSORGTOP
 10
0.0
 20
0.0
 30
0.0
  9
$UCSORGBOTTOM
 10
0.0
 20
0.0
 30
0.0
  9
$UCSORGLEFT
 10
0.0
 20
0.0
 30
0.0
  9
$UCSORGRIGHT
 10
0.0
 20
0.0
 30
0.0
  9
$UCSORGFRONT
 10
0.0
 20
0.0
 30
0.0
  9
$UCSORGBACK
 10
0.0
 20
0.0
 30
0.0
  9
$PUCSBASE
  2

  9
$PUCSNAME
  2

  9
$PUCSORG
 10
0.0
 20
0.0
 30
0.0
  9
$PUCSXDIR
 10
1.0
 20
0.0
 30
0.0
  9
$PUCSYDIR
 10
0.0
 20
1.0
 30
0.0
  9
$PUCSORTHOREF
  2

  9
$PUCSORTHOVIEW
 70
     0
  9
$PUCSORGTOP
 10
0.0
 20
0.0
 30
0.0
  9
$PUCSORGBOTTOM
 10
0.0
 20
0.0
 30
0.0
  9
$PUCSORGLEFT
 10
0.0
 20
0.0
 30
0.0
  9
$PUCSORGRIGHT
 10
0.0
 20
0.0
 30
0.0
  9
$PUCSORGFRONT
 10
0.0
 20
0.0
 30
0.0
  9
$PUCSORGBACK
 10
0.0
 20
0.0
 30
0.0
  9
$USERI1
 70
     0
  9
$USERI2
 70
     0
  9
$USERI3
 70
     0
  9
$USERI4
 70
     0
  9
$USERI5
 70
     0
  9
$USERR1
 40
0.0
  9
$USERR2
 40
0.0
  9
$USERR3
 40
0.0
  9
$USERR4
 40
0.0
  9
$USERR5
 40
0.0
  9
$WORLDVIEW
 70
     1
  9
$SHADEDGE
 70
     3
  9
$SHADEDIF
 70
    70
  9
$TILEMODE
 70
     1
  9
$MAXACTVP
 70
    64
  9
$PINSBASE
 10
0.0
 20
0.0
 30
0.0
  9
$PLIMCHECK
 70
     0
  9
$PEXTMIN
 10
1.000000000000000E+20
 20
1.000000000000000E+20
 30
1.000000000000000E+20
  9
$PEXTMAX
 10
-1.000000000000000E+20
 20
-1.000000000000000E+20
 30
-1.000000000000000E+20
  9
$PLIMMIN
 10
0.0
 20
0.0
  9
$PLIMMAX
 10
420.0
 20
297.0
  9
$UNITMODE
 70
     0
  9
$VISRETAIN
 70
     1
  9
$PLINEGEN
 70
     0
  9
$PSLTSCALE
 70
     1
  9
$TREEDEPTH
 70
  3020
  9
$CMLSTYLE
  2
Standard
  9
$CMLJUST
 70
     0
  9
$CMLSCALE
 40
20.0
  9
$PROXYGRAPHICS
 70
     1
  9
$MEASUREMENT
 70
     1
  9
$CELWEIGHT
370
    -1
  9
$ENDCAPS
280
     0
  9
$JOINSTYLE
280
     0
  9
$LWDISPLAY
290
     0
  9
$INSUNITS
 70
     4
  9
$HYPERLINKBASE
  1

  9
$STYLESHEET
  1

  9
$XEDIT
290
     1
  9
$CEPSNTYPE
380
     0
  9
$PSTYLEMODE
290
     1
  9
$FINGERPRINTGUID
  2
{92905EEA-4798-D3AF-0738-BBE039DCC74E}
  9
$VERSIONGUID
  2
{FAEB1C32-E019-11D5-929B-00C0DF256EC4}
  9
$EXTNAMES
290
     1
  9
$PSVPSCALE
 40
0.0
  9
$OLESTARTUP
290
     0
  9
$SORTENTS
280
   127
  9
$INDEXCTL
280
     0
  9
$HIDETEXT
280
     1
  9
$XCLIPFRAME
280
     2
  9
$HALOGAP
280
     0
  9
$OBSCOLOR
 70
   257
  9
$OBSLTYPE
280
     0
  9
$INTERSECTIONDISPLAY
280
     0
  9
$INTERSECTIONCOLOR
 70
   257
  9
$DIMASSOC
280
     2
  9
$PROJECTNAME
  1

  9
$CAMERADISPLAY
290
     0
  9
$LENSLENGTH
 40
50.0
  9
$CAMERAHEIGHT
 40
0.0
  9
$STEPSPERSEC
 40
2.0
  9
$STEPSIZE
 40
6.0
  9
$3DDWFPREC
 40
2.0
  9
$PSOLWIDTH
 40
5.0
  9
$PSOLHEIGHT
 40
80.0
  9
$LOFTANG1
 40
1.570796326794897
  9
$LOFTANG2
 40
1.570796326794897
  9
$LOFTMAG1
 40
0.0
  9
$LOFTMAG2
 40
0.0
  9
$LOFTPARAM
 70
     7
  9
$LOFTNORMALS
280
     1
  9
$LATITUDE
 40
37.795
  9
$LONGITUDE
 40
-122.394
  9
$NORTHDIRECTION
 40
0.0
  9
$TIMEZONE
 70
 -8000
  9
$LIGHTGLYPHDISPLAY
280
     1
  9
$TILEMODELIGHTSYNCH
280
     1
  9
$CMATERIAL
347
3C
  9
$SOLIDHIST
280
     1
  9
$SHOWHIST
280
     1
  9
$DWFFRAME
280
     2
  9
$DGNFRAME
280
     2
  9
$REALWORLDSCALE
290
     1
  9
$INTERFERECOLOR
 62
   256
  9
$CSHADOW
280
     0
  9
$SHADOWPLANELOCATION
 40
0.0
  0
ENDSEC
  0
SECTION
  2
CLASSES
  0
CLASS
  1
ACDBDICTIONARYWDFLT
  2
AcDbDictionaryWithDefault
  3
ObjectDBX Classes
 90
        0
 91
        4
280
     0
281
     0
  0
CLASS
  1
VISUALSTYLE
  2
AcDbVisualStyle
  3
ObjectDBX Classes
 90
     4095
 91
        4
280
     0
281
     0
  0
CLASS
  1
MATERIAL
  2
AcDbMaterial
  3
ObjectDBX Classes
 90
     1153
 91
        4
280
     0
281
     0
  0
CLASS
  1
SUN
  2
AcDbSun
  3
SCENEOE
 90
     1024
 91
        4
280
     0
281
     0
  0
ENDSEC
  0
SECTION
  2
TABLES
  0
TABLE
  2
VPORT
  5
8
330
0
100
AcDbSymbolTable
 70
     1
  0
VPORT
  5
29
330
8
100
AcDbSymbolTableRecord
100
AcDbViewportTableRecord
  2
*Active
 70
     0
 10
0.0
 20
0.0
 11
1.0
 21
1.0
 12
360.5069142256372
 22
77.37740091485402
 13
0.0
 23
0.0
 14
10.0
 24
10.0
 15
10.0
 25
10.0
 16
0.0
 26
0.0
 36
1.0
 17
0.0
 27
0.0
 37
0.0
 40
643.00113180099
 41
2.116173120728929
 42
50.0
 43
0.0
 44
0.0
 50
0.0
 51
0.0
 71
     0
 72
   100
 73
     1
 74
     3
 75
     0
 76
     0
 77
     0
 78
     0
281
     0
 65
     1
110
0.0
120
0.0
130
0.0
111
1.0
121
0.0
131
0.0
112
0.0
122
1.0
132
0.0
 79
     0
146
0.0
 60
     3
 61
     5
292
     1
282
     1
141
0.0
142
0.0
 63
   250
361
3F
  0
ENDTAB
  0
TABLE
  2
LTYPE
  5
5
330
0
100
AcDbSymbolTable
 70
     7
  0
LTYPE
  5
14
330
5
100
AcDbSymbolTableRecord
100
AcDbLinetypeTableRecord
  2
ByBlock
 70
     0
  3

 72
    65
 73
     0
 40
0.0
  0
LTYPE
  5
15
330
5
100
AcDbSymbolTableRecord
100
AcDbLinetypeTableRecord
  2
ByLayer
 70
     0
  3

 72
    65
 73
     0
 40
0.0
  0
LTYPE
  5
16
330
5
100
AcDbSymbolTableRecord
100
AcDbLinetypeTableRecord
  2
Continuous
 70
     0
  3
Solid line
 72
    65
 73
     0
 40
0.0
  0
LTYPE
  5
40
330
5
100
AcDbSymbolTableRecord
100
AcDbLinetypeTableRecord
  2
DOT
 70
     0
  3
Dot . . . . . . . . . . . . . . . . . . . . . . . .
 72
    65
 73
     2
 40
2.032
 49
1.016
 74
     0
 49
-1.016
 74
     0
  0
LTYPE
  5
41
330
5
100
AcDbSymbolTableRecord
100
AcDbLinetypeTableRecord
  2
CENTER
 70
     0
  3
Center ____ _ ____ _ ____ _ ____ _ ____ _ ____
 72
    65
 73
     4
 40
13.208
 49
8.128
 74
     0
 49
-1.524
 74
     0
 49
2.032
 74
     0
 49
-1.524
 74
     0
  0
LTYPE
  5
42
330
5
100
AcDbSymbolTableRecord
100
AcDbLinetypeTableRecord
  2
HIDDEN2
 70
     0
  3
Hidden (.5x) _ _ _ _ _ _ _ _ _ _ _ _ _ _ _ _ _
 72
    65
 73
     2
 40
4.762499999999999
 49
3.175
 74
     0
 49
-1.5875
 74
     0
  0
LTYPE
  5
43
330
5
100
AcDbSymbolTableRecord
100
AcDbLinetypeTableRecord
  2
DASHED
 70
     0
  3
Dashed __ __ __ __ __ __ __ __ __ __ __ __ __ _
 72
    65
 73
     2
 40
9.652
 49
8.128
 74
     0
 49
-1.524
 74
     0
  0
LTYPE
  5
44
330
5
100
AcDbSymbolTableRecord
100
AcDbLinetypeTableRecord
  2
PHANTOM2
 70
     0
  3
Phantom (.5x) ___ _ _ ___ _ _ ___ _ _ ___ _ _
 72
    65
 73
     6
 40
14.732
 49
8.128
 74
     0
 49
-1.524
 74
     0
 49
1.016
 74
     0
 49
-1.524
 74
     0
 49
1.016
 74
     0
 49
-1.524
 74
     0
  0
LTYPE
  5
45
330
5
100
AcDbSymbolTableRecord
100
AcDbLinetypeTableRecord
  2
DASHDOT
 70
     0
  3
Dash dot __ . __ . __ . __ . __ . __ . __ . __
 72
    65
 73
     4
 40
11.176
 49
8.128
 74
     0
 49
-1.524
 74
     0
 49
0.0
 74
     0
 49
-1.524
 74
     0
  0
ENDTAB
  0
TABLE
  2
LAYER
  5
2
330
0
100
AcDbSymbolTable
 70
     7
  0
LAYER
  5
10
330
2
100
AcDbSymbolTableRecord
100
AcDbLayerTableRecord
  2
0
 70
     0
 62
     5
  6
Continuous
370
    -3
390
F
347
3E
  0
LAYER
  5
46
330
2
100
AcDbSymbolTableRecord
100
AcDbLayerTableRecord
  2
Default
 70
     0
 62
     255
  6
Continuous
370
    -3
390
F
347
3E
  0
LAYER
  5
78
330
2
100
AcDbSymbolTableRecord
100
AcDbLayerTableRecord
  2
pox
 70
0
 62
255
  6
Continuous
370
    -3
390
F
347
3E
  0
LAYER
  5
d1
330
2
100
AcDbSymbolTableRecord
100
AcDbLayerTableRecord
  2
Mirrors
 70
0
 62
255
  6
Continuous
370
    -3
390
F
347
3E
  0
LAYER
  5
82
330
2
100
AcDbSymbolTableRecord
100
AcDbLayerTableRecord
  2
text
 70
0
 62
255
  6
Continuous
370
    -3
390
F
347
3E
  0
LAYER
  5
b3
330
2
100
AcDbSymbolTableRecord
100
AcDbLayerTableRecord
  2
main_beam
 70
0
 62
1
  6
Continuous
370
    -3
390
F
347
3E
  0
LAYER
  5
7c
330
2
100
AcDbSymbolTableRecord
100
AcDbLayerTableRecord
  2
poy
 70
0
 62
255
  6
Continuous
370
    -3
390
F
347
3E
  0
LAYER
  5
109
330
2
100
AcDbSymbolTableRecord
100
AcDbLayerTableRecord
  2
aux_beam
 70
0
 62
3
  6
Continuous
370
    -3
390
F
347
3E
  0
LAYER
  5
10a
330
2
100
AcDbSymbolTableRecord
100
AcDbLayerTableRecord
  2
pox_beam
 70
0
 62
5
  6
Continuous
370
    -3
390
F
347
3E
  0
LAYER
  5
10b
330
2
100
AcDbSymbolTableRecord
100
AcDbLayerTableRecord
  2
pox_width
 70
0
 62
255
  6
Continuous
370
    -3
390
F
347
3E
  0
LAYER
  5
112
330
2
100
AcDbSymbolTableRecord
100
AcDbLayerTableRecord
  2
poy_beam
 70
0
 62
5
  6
Continuous
370
    -3
390
F
347
3E
  0
LAYER
  5
113
330
2
100
AcDbSymbolTableRecord
100
AcDbLayerTableRecord
  2
main_beam_width
 70
0
 62
6
  6
Continuous
370
    -3
390
F
347
3E
  0
LAYER
  5
14e
330
2
100
AcDbSymbolTableRecord
100
AcDbLayerTableRecord
  2
Vacuum
 70
0
 62
255
  6
Continuous
370
    -3
390
F
347
3E
  0
LAYER
  5
172
330
2
100
AcDbSymbolTableRecord
100
AcDbLayerTableRecord
  2
poy_width
 70
0
 62
255
  6
Continuous
370
    -3
390
F
347
3E
  0
LAYER
  5
17d
330
2
100
AcDbSymbolTableRecord
100
AcDbLayerTableRecord
  2
poy_beam_width
 70
0
 62
4
  6
Continuous
370
    -3
390
F
347
3E
  0
LAYER
  5
17e
330
2
100
AcDbSymbolTableRecord
100
AcDbLayerTableRecord
  2
pox_beam_width
 70
0
 62
4
  6
Continuous
370
    -3
390
F
347
3E
  0
LAYER
  5
17f
330
2
100
AcDbSymbolTableRecord
100
AcDbLayerTableRecord
  2
aux_beam_width
 70
0
 62
4
  6
Continuous
370
    -3
390
F
347
3E
  0
ENDTAB
  0
TABLE
  2
STYLE
  5
3
330
0
100
AcDbSymbolTable
 70
    33
  0
STYLE
  5
11
330
3
100
AcDbSymbolTableRecord
100
AcDbTextStyleTableRecord
  2
Standard
 70
     0
 40
0.0
 41
1.0
 50
0.0
 71
     0
 42
2.5
  3
txt
  4

  0
ENDTAB
  0
TABLE
  2
VIEW
  5
6
330
0
100
AcDbSymbolTable
 70
     0
  0
ENDTAB
  0
TABLE
  2
UCS
  5
7
330
0
100
AcDbSymbolTable
 70
     0
  0
ENDTAB
  0
TABLE
  2
APPID
  5
9
330
0
100
AcDbSymbolTable
 70
     1
  0
APPID
  5
12
330
9
100
AcDbSymbolTableRecord
100
AcDbRegAppTableRecord
  2
ACAD
 70
     0
  0
ENDTAB
  0
TABLE
  2
DIMSTYLE
  5
A
330
0
100
AcDbSymbolTable
 70
     1
100
AcDbDimStyleTable
  0
DIMSTYLE
105
27
330
A
100
AcDbSymbolTableRecord
100
AcDbDimStyleTableRecord
  2
ISO-25
 70
     0
 41
2.5
 42
0.625
 43
3.75
 44
1.25
 73
     0
 74
     0
 77
     1
 78
     8
140
2.5
141
2.5
143
0.03937007874016
147
0.625
171
     3
172
     1
178
     0
271
     2
272
     2
274
     3
278
    44
283
     0
284
     8
340
11
  0
ENDTAB
  0
TABLE
  2
BLOCK_RECORD
  5
1
330
0
100
AcDbSymbolTable
 70
     1
  0
BLOCK_RECORD
  5
1F
330
1
100
AcDbSymbolTableRecord
100
AcDbBlockTableRecord
  2
*Model_Space
340
22
 70
     0
280
     1
281
     0
  0
BLOCK_RECORD
  5
1B
330
1
100
AcDbSymbolTableRecord
100
AcDbBlockTableRecord
  2
*Paper_Space
340
1E
 70
     0
280
     1
281
     0
  0
BLOCK_RECORD
  5
23
330
1
100
AcDbSymbolTableRecord
100
AcDbBlockTableRecord
  2
*Paper_Space0
340
26
 70
     0
280
     1
281
     0
  0
ENDTAB
    0
ENDSEC
  0
SECTION
  2
BLOCKS
  0
BLOCK
  5
20
330
1F
100
AcDbEntity
  8
0
100
AcDbBlockBegin
  2
*Model_Space
 70
     0
 10
0.0
 20
0.0
 30
0.0
  3
*Model_Space
  1

  0
ENDBLK
  5
21
330
1F
100
AcDbEntity
  8
0
100
AcDbBlockEnd
  0
BLOCK
  5
1C
330
1B
100
AcDbEntity
 67
     1
  8
0
100
AcDbBlockBegin
  2
*Paper_Space
 70
     0
 10
0.0
 20
0.0
 30
0.0
  3
*Paper_Space
  1

  0
ENDBLK
  5
1D
330
1B
100
AcDbEntity
 67
     1
  8
0
100
AcDbBlockEnd
  0
BLOCK
  5
24
330
23
100
AcDbEntity
  8
0
100
AcDbBlockBegin
  2
*Paper_Space0
 70
     0
 10
0.0
 20
0.0
 30
0.0
  3
*Paper_Space0
  1

  0
ENDBLK
  5
25
330
23
100
AcDbEntity
  8
0
100
AcDbBlockEnd
  0
ENDSEC
  0
SECTION
  2
ENTITIES
  0
LINE
  5
79
330
1F
100
AcDbEntity
  8
pox
100
AcDbLine
 10
88.2163923434
 20
-25.0230531788
 30
0.0
  11
32.3196031831
 21
-15693.7889055
 31
0.0
  0
LINE
  5
7a
330
1F
100
AcDbEntity
  8
pox
100
AcDbLine
 10
32.3196031831
 20
-15693.7889055
 30
0.0
  11
240.379429924
 21
-4584.01241698
 31
0.0
  0
LINE
  5
7b
330
1F
100
AcDbEntity
  8
pox
100
AcDbLine
 10
240.379429924
 20
-4584.01241698
 30
0.0
  11
-250.941280978
 21
-15684.8694323
 31
0.0
  0
LINE
  5
d2
330
1F
100
AcDbEntity
  8
Mirrors
100
AcDbLine
 10
172.235133536
 20
-15694.9556356
 30
0.0
  11
171.226432245
 21
-15790.5852197
 31
0.0
  0
LINE
  5
d3
330
1F
100
AcDbEntity
  8
Mirrors
100
AcDbLine
 10
-78.8517423525
 20
-15796.6780719
 30
0.0
  11
-77.7509600738
 21
-15692.3187811
 31
0.0
  0
LINE
  5
d4
330
1F
100
AcDbEntity
  8
Mirrors
100
AcDbLine
 10
-77.8564342524
 20
-15702.3182249
 30
0.0
  11
172.129659358
 21
-15704.9550793
 31
0.0
  0
LWPOLYLINE
  5
d5
330
1F
100
AcDbEntity
  8
Mirrors
100
AcDbPolyline
 90
60
 70
0
43
0.0
 10
-77.7509600738
 20
-15692.3187811
 10
-73.4410791589
 20
-15692.3854943
 10
-69.131190379
 20
-15692.4514619
 10
-64.8212937341
 20
-15692.5166839
 10
-60.5113892243
 20
-15692.5811602
 10
-56.2014768494
 20
-15692.6448909
 10
-51.8915566097
 20
-15692.7078759
 10
-47.5816285051
 20
-15692.7701153
 10
-43.2716925355
 20
-15692.8316091
 10
-38.9617487011
 20
-15692.8923573
 10
-34.6517970019
 20
-15692.9523598
 10
-30.3418374377
 20
-15693.0116167
 10
-26.0318700088
 20
-15693.070128
 10
-21.721894715
 20
-15693.1278936
 10
-17.4119115564
 20
-15693.1849137
 10
-13.101920533
 20
-15693.2411881
 10
-8.79192164476
 20
-15693.2967169
 10
-4.48191489178
 20
-15693.3515001
 10
-0.17190027403
 20
-15693.4055377
 10
4.13812220849
 20
-15693.4588296
 10
8.44815255577
 20
-15693.511376
 10
12.7581907678
 20
-15693.5631767
 10
17.0682368446
 20
-15693.6142318
 10
21.3782907861
 20
-15693.6645413
 10
25.6883525923
 20
-15693.7141051
 10
29.9984222633
 20
-15693.7629234
 10
34.308499799
 20
-15693.8109961
 10
38.6185851995
 20
-15693.8583231
 10
42.9286784646
 20
-15693.9049045
 10
47.2387795945
 20
-15693.9507403
 10
47.2387795945
 20
-15693.9507403
 10
51.5488885891
 20
-15693.9958305
 10
55.8590054485
 20
-15694.0401751
 10
60.1691301725
 20
-15694.0837741
 10
64.4792627613
 20
-15694.1266275
 10
68.7894032148
 20
-15694.1687352
 10
73.099551533
 20
-15694.2100974
 10
77.409707716
 20
-15694.2507139
 10
81.7198717637
 20
-15694.2905848
 10
86.0300436762
 20
-15694.3297101
 10
90.3402234534
 20
-15694.3680898
 10
94.6504110954
 20
-15694.4057238
 10
98.9606066021
 20
-15694.4426123
 10
103.270809974
 20
-15694.4787551
 10
107.58102121
 20
-15694.5141523
 10
111.891240311
 20
-15694.5488039
 10
116.201467277
 20
-15694.5827099
 10
120.511702108
 20
-15694.6158703
 10
124.821944803
 20
-15694.648285
 10
129.132195364
 20
-15694.6799541
 10
133.442453789
 20
-15694.7108776
 10
137.752720079
 20
-15694.7410554
 10
142.062994234
 20
-15694.7704877
 10
146.373276254
 20
-15694.7991743
 10
150.683566138
 20
-15694.8271152
 10
154.993863888
 20
-15694.8543106
 10
159.304169503
 20
-15694.8807603
 10
163.614482982
 20
-15694.9064644
 10
167.924804327
 20
-15694.9314228
 10
172.235133536
 20
-15694.9556356
  0
LINE
  5
d6
330
1F
100
AcDbEntity
  8
Mirrors
100
AcDbLine
 10
171.226432245
 20
-15790.5852197
 30
0.0
  11
-78.8517423525
 21
-15796.6780719
 31
0.0
  0
LINE
  5
d7
330
1F
100
AcDbEntity
  8
Mirrors
100
AcDbLine
 10
2991575.24175
 20
117.425805057
 30
0.0
  11
2991674.69634
 21
117.425805057
 31
0.0
  0
LINE
  5
d8
330
1F
100
AcDbEntity
  8
Mirrors
100
AcDbLine
 10
2991675.78717
 20
-132.574194943
 30
0.0
  11
2991575.24175
 21
-132.574194943
 31
0.0
  0
LINE
  5
d9
330
1F
100
AcDbEntity
  8
Mirrors
100
AcDbLine
 10
2991585.24175
 20
-132.574194943
 30
0.0
  11
2991585.24175
 21
117.425805057
 31
0.0
  0
LWPOLYLINE
  5
da
330
1F
100
AcDbEntity
  8
Mirrors
100
AcDbPolyline
 90
60
 70
0
43
0.0
 10
2991575.24175
 20
-132.574194943
 10
2991575.24183
 20
-128.263850115
 10
2991575.2419
 20
-123.953505288
 10
2991575.24196
 20
-119.64316046
 10
2991575.24203
 20
-115.332815632
 10
2991575.24209
 20
-111.022470805
 10
2991575.24215
 20
-106.712125977
 10
2991575.24221
 20
-102.40178115
 10
2991575.24226
 20
-98.0914363221
 10
2991575.24231
 20
-93.7810914945
 10
2991575.24236
 20
-89.4707466669
 10
2991575.24241
 20
-85.1604018393
 10
2991575.24245
 20
-80.8500570117
 10
2991575.2425
 20
-76.5397121841
 10
2991575.24254
 20
-72.2293673565
 10
2991575.24257
 20
-67.919022529
 10
2991575.24261
 20
-63.6086777014
 10
2991575.24264
 20
-59.2983328738
 10
2991575.24267
 20
-54.9879880462
 10
2991575.24269
 20
-50.6776432186
 10
2991575.24272
 20
-46.367298391
 10
2991575.24274
 20
-42.0569535634
 10
2991575.24276
 20
-37.7466087358
 10
2991575.24278
 20
-33.4362639083
 10
2991575.24279
 20
-29.1259190807
 10
2991575.2428
 20
-24.8155742531
 10
2991575.24281
 20
-20.5052294255
 10
2991575.24282
 20
-16.1948845979
 10
2991575.24282
 20
-11.8845397703
 10
2991575.24282
 20
-7.57419494275
 10
2991575.24282
 20
-7.57419494275
 10
2991575.24282
 20
-3.26385011516
 10
2991575.24282
 20
1.04649471243
 10
2991575.24281
 20
5.35683954001
 10
2991575.2428
 20
9.6671843676
 10
2991575.24279
 20
13.9775291952
 10
2991575.24278
 20
18.2878740228
 10
2991575.24276
 20
22.5982188504
 10
2991575.24274
 20
26.9085636779
 10
2991575.24272
 20
31.2189085055
 10
2991575.24269
 20
35.5292533331
 10
2991575.24267
 20
39.8395981607
 10
2991575.24264
 20
44.1499429883
 10
2991575.24261
 20
48.4602878159
 10
2991575.24257
 20
52.7706326435
 10
2991575.24254
 20
57.080977471
 10
2991575.2425
 20
61.3913222986
 10
2991575.24245
 20
65.7016671262
 10
2991575.24241
 20
70.0120119538
 10
2991575.24236
 20
74.3223567814
 10
2991575.24231
 20
78.632701609
 10
2991575.24226
 20
82.9430464366
 10
2991575.24221
 20
87.2533912642
 10
2991575.24215
 20
91.5637360917
 10
2991575.24209
 20
95.8740809193
 10
2991575.24203
 20
100.184425747
 10
2991575.24196
 20
104.494770574
 10
2991575.2419
 20
108.805115402
 10
2991575.24183
 20
113.11546023
 10
2991575.24175
 20
117.425805057
  0
LINE
  5
db
330
1F
100
AcDbEntity
  8
Mirrors
100
AcDbLine
 10
2991674.69634
 20
117.425805057
 30
0.0
  11
2991675.78717
 21
-132.574194943
 31
0.0
  0
LINE
  5
dc
330
1F
100
AcDbEntity
  8
Mirrors
100
AcDbLine
 10
-141.397090621
 20
2988290.10464
 30
0.0
  11
-141.397090621
 21
2988389.55923
 31
0.0
  0
LINE
  5
dd
330
1F
100
AcDbEntity
  8
Mirrors
100
AcDbLine
 10
108.602909379
 20
2988390.65006
 30
0.0
  11
108.602909379
 21
2988290.10464
 31
0.0
  0
LINE
  5
de
330
1F
100
AcDbEntity
  8
Mirrors
100
AcDbLine
 10
108.602909379
 20
2988300.10464
 30
0.0
  11
-141.397090621
 21
2988300.10464
 31
0.0
  0
LWPOLYLINE
  5
df
330
1F
100
AcDbEntity
  8
Mirrors
100
AcDbPolyline
 90
60
 70
0
43
0.0
 10
108.602909379
 20
2988290.10464
 10
104.292564551
 20
2988290.10472
 10
99.9822197238
 20
2988290.10479
 10
95.6718748962
 20
2988290.10485
 10
91.3615300687
 20
2988290.10492
 10
87.0511852411
 20
2988290.10498
 10
82.7408404135
 20
2988290.10504
 10
78.4304955859
 20
2988290.1051
 10
74.1201507583
 20
2988290.10515
 10
69.8098059307
 20
2988290.1052
 10
65.4994611031
 20
2988290.10525
 10
61.1891162756
 20
2988290.1053
 10
56.878771448
 20
2988290.10534
 10
52.5684266204
 20
2988290.10539
 10
48.2580817928
 20
2988290.10543
 10
43.9477369652
 20
2988290.10546
 10
39.6373921376
 20
2988290.1055
 10
35.32704731
 20
2988290.10553
 10
31.0167024825
 20
2988290.10556
 10
26.7063576549
 20
2988290.10558
 10
22.3960128273
 20
2988290.10561
 10
18.0856679997
 20
2988290.10563
 10
13.7753231721
 20
2988290.10565
 10
9.46497834452
 20
2988290.10567
 10
5.15463351693
 20
2988290.10568
 10
0.844288689347
 20
2988290.10569
 10
-3.46605613824
 20
2988290.1057
 10
-7.77640096583
 20
2988290.10571
 10
-12.0867457934
 20
2988290.10571
 10
-16.397090621
 20
2988290.10571
 10
-16.397090621
 20
2988290.10571
 10
-20.7074354486
 20
2988290.10571
 10
-25.0177802762
 20
2988290.10571
 10
-29.3281251038
 20
2988290.1057
 10
-33.6384699313
 20
2988290.10569
 10
-37.9488147589
 20
2988290.10568
 10
-42.2591595865
 20
2988290.10567
 10
-46.5695044141
 20
2988290.10565
 10
-50.8798492417
 20
2988290.10563
 10
-55.1901940693
 20
2988290.10561
 10
-59.5005388969
 20
2988290.10558
 10
-63.8108837244
 20
2988290.10556
 10
-68.121228552
 20
2988290.10553
 10
-72.4315733796
 20
2988290.1055
 10
-76.7419182072
 20
2988290.10546
 10
-81.0522630348
 20
2988290.10543
 10
-85.3626078624
 20
2988290.10539
 10
-89.67295269
 20
2988290.10534
 10
-93.9832975175
 20
2988290.1053
 10
-98.2936423451
 20
2988290.10525
 10
-102.603987173
 20
2988290.1052
 10
-106.914332
 20
2988290.10515
 10
-111.224676828
 20
2988290.1051
 10
-115.535021655
 20
2988290.10504
 10
-119.845366483
 20
2988290.10498
 10
-124.155711311
 20
2988290.10492
 10
-128.466056138
 20
2988290.10485
 10
-132.776400966
 20
2988290.10479
 10
-137.086745793
 20
2988290.10472
 10
-141.397090621
 20
2988290.10464
  0
LINE
  5
e0
330
1F
100
AcDbEntity
  8
Mirrors
100
AcDbLine
 10
-141.397090621
 20
2988389.55923
 30
0.0
  11
108.602909379
 21
2988390.65006
 31
0.0
  0
LINE
  5
e1
330
1F
100
AcDbEntity
  8
Mirrors
100
AcDbLine
 10
134.380236173
 20
134.320334
 30
0.0
  11
191.123712967
 21
77.5515515999
 31
0.0
  0
LINE
  5
e2
330
1F
100
AcDbEntity
  8
Mirrors
100
AcDbLine
 10
-78.0118527562
 20
-190.713855746
 30
0.0
  11
-134.380236173
 21
-134.320334
 31
0.0
  0
LINE
  5
e3
330
1F
100
AcDbEntity
  8
Mirrors
100
AcDbLine
 10
-128.724643163
 20
-139.978449208
 30
0.0
  11
140.035829184
 21
128.662218793
 31
0.0
  0
LINE
  5
e4
330
1F
100
AcDbEntity
  8
Mirrors
100
AcDbLine
 10
-134.380236173
 20
-134.320334
 30
0.0
  11
134.380236173
 21
134.320334
 31
0.0
  0
LINE
  5
e5
330
1F
100
AcDbEntity
  8
Mirrors
100
AcDbLine
 10
191.123712967
 20
77.5515515999
 30
0.0
  11
-78.0118527562
 21
-190.713855746
 31
0.0
  0
LINE
  5
e6
330
1F
100
AcDbEntity
  8
Mirrors
100
AcDbLine
 10
390.280099826
 20
-19326.7088432
 30
0.0
  11
390.07113176
 21
-19422.3435187
 31
0.0
  0
LINE
  5
e7
330
1F
100
AcDbEntity
  8
Mirrors
100
AcDbLine
 10
140.052652572
 20
-19430.5274251
 30
0.0
  11
140.280696638
 21
-19326.1625781
 31
0.0
  0
LINE
  5
e8
330
1F
100
AcDbEntity
  8
Mirrors
100
AcDbLine
 10
140.258846032
 20
-19336.1625542
 30
0.0
  11
390.25824922
 21
-19336.7088194
 31
0.0
  0
LWPOLYLINE
  5
e9
330
1F
100
AcDbEntity
  8
Mirrors
100
AcDbPolyline
 90
60
 70
0
43
0.0
 10
140.280696638
 20
-19326.1625781
 10
144.591028651
 20
-19326.1731522
 10
148.901360752
 20
-19326.1836858
 10
153.211692941
 20
-19326.1941789
 10
157.522025219
 20
-19326.2046314
 10
161.832357586
 20
-19326.2150433
 10
166.142690041
 20
-19326.2254147
 10
170.453022585
 20
-19326.2357455
 10
174.763355218
 20
-19326.2460358
 10
179.073687939
 20
-19326.2562855
 10
183.384020748
 20
-19326.2664947
 10
187.694353647
 20
-19326.2766633
 10
192.004686634
 20
-19326.2867914
 10
196.315019709
 20
-19326.2968789
 10
200.625352874
 20
-19326.3069259
 10
204.935686126
 20
-19326.3169323
 10
209.246019468
 20
-19326.3268981
 10
213.556352898
 20
-19326.3368234
 10
217.866686417
 20
-19326.3467081
 10
222.177020024
 20
-19326.3565523
 10
226.48735372
 20
-19326.366356
 10
230.797687504
 20
-19326.376119
 10
235.108021377
 20
-19326.3858415
 10
239.418355339
 20
-19326.3955235
 10
243.72868939
 20
-19326.4051649
 10
248.039023528
 20
-19326.4147658
 10
252.349357756
 20
-19326.4243261
 10
256.659692072
 20
-19326.4338458
 10
260.970026477
 20
-19326.443325
 10
265.28036097
 20
-19326.4527637
 10
265.28036097
 20
-19326.4527637
 10
269.590695552
 20
-19326.4621618
 10
273.901030223
 20
-19326.4715193
 10
278.211364982
 20
-19326.4808363
 10
282.52169983
 20
-19326.4901127
 10
286.832034767
 20
-19326.4993486
 10
291.142369792
 20
-19326.5085439
 10
295.452704906
 20
-19326.5176987
 10
299.763040108
 20
-19326.5268129
 10
304.073375399
 20
-19326.5358865
 10
308.383710778
 20
-19326.5449196
 10
312.694046247
 20
-19326.5539122
 10
317.004381803
 20
-19326.5628642
 10
321.314717449
 20
-19326.5717756
 10
325.625053183
 20
-19326.5806465
 10
329.935389005
 20
-19326.5894768
 10
334.245724917
 20
-19326.5982666
 10
338.556060916
 20
-19326.6070158
 10
342.866397005
 20
-19326.6157245
 10
347.176733182
 20
-19326.6243926
 10
351.487069448
 20
-19326.6330201
 10
355.797405802
 20
-19326.6416071
 10
360.107742245
 20
-19326.6501536
 10
364.418078776
 20
-19326.6586595
 10
368.728415397
 20
-19326.6671248
 10
373.038752105
 20
-19326.6755496
 10
377.349088903
 20
-19326.6839339
 10
381.659425789
 20
-19326.6922775
 10
385.969762763
 20
-19326.7005807
 10
390.280099826
 20
-19326.7088432
  0
LINE
  5
ea
330
1F
100
AcDbEntity
  8
Mirrors
100
AcDbLine
 10
390.07113176
 20
-19422.3435187
 30
0.0
  11
140.052652572
 21
-19430.5274251
 31
0.0
  0
LINE
  5
eb
330
1F
100
AcDbEntity
  8
Mirrors
100
AcDbLine
 10
172.532692709
 20
-4581.10373406
 30
0.0
  11
173.714177048
 21
-4485.47612862
 31
0.0
  0
LINE
  5
ec
330
1F
100
AcDbEntity
  8
Mirrors
100
AcDbLine
 10
423.802952085
 20
-4479.83513056
 30
0.0
  11
422.51361397
 21
-4584.19226212
 31
0.0
  0
LINE
  5
ed
330
1F
100
AcDbEntity
  8
Mirrors
100
AcDbLine
 10
422.637155093
 20
-4574.19302527
 30
0.0
  11
172.656233832
 21
-4571.10449721
 31
0.0
  0
LWPOLYLINE
  5
ee
330
1F
100
AcDbEntity
  8
Mirrors
100
AcDbPolyline
 90
60
 70
0
43
0.0
 10
422.51361397
 20
-4584.19226212
 10
418.201406358
 20
-4584.3164069
 10
413.889275772
 20
-4584.43431728
 10
409.5772222
 20
-4584.54599434
 10
405.265245627
 20
-4584.65143912
 10
400.953346042
 20
-4584.75065261
 10
396.641523434
 20
-4584.84363577
 10
392.32977779
 20
-4584.9303895
 10
388.018109101
 20
-4585.01091469
 10
383.706517355
 20
-4585.08521218
 10
379.395002543
 20
-4585.15328275
 10
375.083564655
 20
-4585.21512718
 10
370.772203682
 20
-4585.27074617
 10
366.460919617
 20
-4585.32014042
 10
362.149712451
 20
-4585.36331056
 10
357.838582177
 20
-4585.4002572
 10
353.527528788
 20
-4585.4309809
 10
349.216552277
 20
-4585.45548218
 10
344.905652638
 20
-4585.47376153
 10
340.594829866
 20
-4585.4858194
 10
336.284083955
 20
-4585.4916562
 10
331.973414902
 20
-4585.49127229
 10
327.662822702
 20
-4585.48466801
 10
323.352307351
 20
-4585.47184365
 10
319.041868847
 20
-4585.45279945
 10
314.731507186
 20
-4585.42753564
 10
310.421222367
 20
-4585.39605239
 10
306.111014387
 20
-4585.35834983
 10
301.800883247
 20
-4585.31442806
 10
297.490828944
 20
-4585.26428714
 10
297.490828944
 20
-4585.26428714
 10
293.180851479
 20
-4585.20792709
 10
288.870950852
 20
-4585.14534789
 10
284.561127064
 20
-4585.07654949
 10
280.251380115
 20
-4585.00153177
 10
275.941710008
 20
-4584.92029461
 10
271.632116745
 20
-4584.83283784
 10
267.322600328
 20
-4584.73916124
 10
263.013160761
 20
-4584.63926455
 10
258.703798047
 20
-4584.53314749
 10
254.394512189
 20
-4584.42080973
 10
250.085303194
 20
-4584.30225089
 10
245.776171065
 20
-4584.17747057
 10
241.467115809
 20
-4584.04646832
 10
237.158137431
 20
-4583.90924365
 10
232.849235937
 20
-4583.76579605
 10
228.540411336
 20
-4583.61612494
 10
224.231663633
 20
-4583.46022972
 10
219.922992838
 20
-4583.29810976
 10
215.614398958
 20
-4583.12976436
 10
211.305882002
 20
-4582.95519282
 10
206.997441981
 20
-4582.77439437
 10
202.689078903
 20
-4582.58736821
 10
198.380792779
 20
-4582.39411351
 10
194.07258362
 20
-4582.19462939
 10
189.764451437
 20
-4581.98891493
 10
185.456396242
 20
-4581.77696918
 10
181.148418047
 20
-4581.55879115
 10
176.840516865
 20
-4581.3343798
 10
172.532692709
 20
-4581.10373406
  0
LINE
  5
ef
330
1F
100
AcDbEntity
  8
Mirrors
100
AcDbLine
 10
173.714177048
 20
-4485.47612862
 30
0.0
  11
423.802952085
 21
-4479.83513056
 31
0.0
  0
LINE
  5
f0
330
1F
100
AcDbEntity
  8
Mirrors
100
AcDbLine
 10
-19461.7355526
 20
101.717441151
 30
0.0
  11
-19557.3700711
 21
101.4459564
 31
0.0
  0
LINE
  5
f1
330
1F
100
AcDbEntity
  8
Mirrors
100
AcDbLine
 10
-19566.8099188
 20
351.420166136
 30
0.0
  11
-19462.4452432
 21
351.716433827
 31
0.0
  0
LINE
  5
f2
330
1F
100
AcDbEntity
  8
Mirrors
100
AcDbLine
 10
-19472.4452029
 20
351.688046205
 30
0.0
  11
-19471.7355123
 21
101.689053529
 31
0.0
  0
LWPOLYLINE
  5
f3
330
1F
100
AcDbEntity
  8
Mirrors
100
AcDbPolyline
 90
60
 70
0
43
0.0
 10
-19462.4452432
 20
351.716433827
 10
-19462.4341629
 20
347.406103086
 10
-19462.4230421
 20
343.09577246
 10
-19462.4118808
 20
338.78544195
 10
-19462.4006788
 20
334.475111554
 10
-19462.3894364
 20
330.164781274
 10
-19462.3781533
 20
325.854451108
 10
-19462.3668298
 20
321.544121058
 10
-19462.3554656
 20
317.233791123
 10
-19462.344061
 20
312.923461303
 10
-19462.3326157
 20
308.613131598
 10
-19462.3211299
 20
304.302802008
 10
-19462.3096036
 20
299.992472534
 10
-19462.2980367
 20
295.682143174
 10
-19462.2864292
 20
291.37181393
 10
-19462.2747812
 20
287.061484801
 10
-19462.2630926
 20
282.751155787
 10
-19462.2513635
 20
278.440826888
 10
-19462.2395939
 20
274.130498104
 10
-19462.2277836
 20
269.820169435
 10
-19462.2159329
 20
265.509840881
 10
-19462.2040415
 20
261.199512443
 10
-19462.1921096
 20
256.88918412
 10
-19462.1801372
 20
252.578855911
 10
-19462.1681242
 20
248.268527818
 10
-19462.1560706
 20
243.95819984
 10
-19462.1439765
 20
239.647871977
 10
-19462.1318419
 20
235.33754423
 10
-19462.1196667
 20
231.027216597
 10
-19462.1074509
 20
226.716889079
 10
-19462.1074509
 20
226.716889079
 10
-19462.0951946
 20
222.406561677
 10
-19462.0828977
 20
218.09623439
 10
-19462.0705603
 20
213.785907218
 10
-19462.0581823
 20
209.475580161
 10
-19462.0457638
 20
205.165253219
 10
-19462.0333047
 20
200.854926392
 10
-19462.020805
 20
196.54459968
 10
-19462.0082648
 20
192.234273084
 10
-19461.9956841
 20
187.923946602
 10
-19461.9830628
 20
183.613620236
 10
-19461.9704009
 20
179.303293985
 10
-19461.9576985
 20
174.992967849
 10
-19461.9449555
 20
170.682641828
 10
-19461.932172
 20
166.372315922
 10
-19461.9193479
 20
162.061990132
 10
-19461.9064833
 20
157.751664456
 10
-19461.8935781
 20
153.441338896
 10
-19461.8806323
 20
149.131013451
 10
-19461.867646
 20
144.82068812
 10
-19461.8546192
 20
140.510362905
 10
-19461.8415518
 20
136.200037805
 10
-19461.8284438
 20
131.889712821
 10
-19461.8152953
 20
127.579387951
 10
-19461.8021063
 20
123.269063196
 10
-19461.7888766
 20
118.958738557
 10
-19461.7756065
 20
114.648414033
 10
-19461.7622957
 20
110.338089624
 10
-19461.7489445
 20
106.02776533
 10
-19461.7355526
 20
101.717441151
  0
LINE
  5
f4
330
1F
100
AcDbEntity
  8
Mirrors
100
AcDbLine
 10
-19557.3700711
 20
101.4459564
 30
0.0
  11
-19566.8099188
 21
351.420166136
 31
0.0
  0
LINE
  5
f5
330
1F
100
AcDbEntity
  8
Mirrors
100
AcDbLine
 10
-15762.0579045
 20
-112.773928553
 30
0.0
  11
-15857.6868114
 21
-113.844909033
 31
0.0
  0
LINE
  5
f6
330
1F
100
AcDbEntity
  8
Mirrors
100
AcDbLine
 10
-15869.2161153
 20
136.041648048
 30
0.0
  11
-15764.8575635
 21
137.210394774
 31
0.0
  0
LINE
  5
f7
330
1F
100
AcDbEntity
  8
Mirrors
100
AcDbLine
 10
-15774.8569364
 20
137.098408414
 30
0.0
  11
-15772.0572774
 21
-112.885914913
 31
0.0
  0
LWPOLYLINE
  5
f8
330
1F
100
AcDbEntity
  8
Mirrors
100
AcDbPolyline
 90
60
 70
0
43
0.0
 10
-15764.8575635
 20
137.210394774
 10
-15764.8305436
 20
132.900082248
 10
-15764.802778
 20
128.589778072
 10
-15764.7742668
 20
124.279482246
 10
-15764.74501
 20
119.969194771
 10
-15764.7150076
 20
115.658915647
 10
-15764.6842595
 20
111.348644873
 10
-15764.6527658
 20
107.038382449
 10
-15764.6205265
 20
102.728128376
 10
-15764.5875416
 20
98.4178826537
 10
-15764.553811
 20
94.1076452817
 10
-15764.5193348
 20
89.7974162601
 10
-15764.484113
 20
85.4871955889
 10
-15764.4481456
 20
81.1769832682
 10
-15764.4114326
 20
76.8667792978
 10
-15764.3739739
 20
72.5565836779
 10
-15764.3357697
 20
68.2463964083
 10
-15764.2968198
 20
63.9362174891
 10
-15764.2571243
 20
59.6260469203
 10
-15764.2166832
 20
55.3158847018
 10
-15764.1754965
 20
51.0057308337
 10
-15764.1335642
 20
46.6955853158
 10
-15764.0908863
 20
42.3854481484
 10
-15764.0474627
 20
38.0753193312
 10
-15764.0032936
 20
33.7651988644
 10
-15763.9583788
 20
29.4550867479
 10
-15763.9127185
 20
25.1449829817
 10
-15763.8663125
 20
20.8348875658
 10
-15763.8191609
 20
16.5248005002
 10
-15763.7712638
 20
12.2147217849
 10
-15763.7712638
 20
12.2147217849
 10
-15763.722621
 20
7.90465141993
 10
-15763.6732326
 20
3.59458940526
 10
-15763.6230986
 20
-0.715464259101
 10
-15763.572219
 20
-5.02550957315
 10
-15763.5205938
 20
-9.33554653689
 10
-15763.4682229
 20
-13.6455751503
 10
-15763.4151065
 20
-17.9555954134
 10
-15763.3612445
 20
-22.2656073262
 10
-15763.3066368
 20
-26.5756108886
 10
-15763.2512836
 20
-30.8856061007
 10
-15763.1951847
 20
-35.1955929625
 10
-15763.1383402
 20
-39.5055714739
 10
-15763.0807501
 20
-43.815541635
 10
-15763.0224144
 20
-48.1255034457
 10
-15762.9633331
 20
-52.435456906
 10
-15762.9035061
 20
-56.7454020159
 10
-15762.8429336
 20
-61.0553387754
 10
-15762.7816154
 20
-65.3652671845
 10
-15762.7195516
 20
-69.6751872432
 10
-15762.6567422
 20
-73.9850989514
 10
-15762.5931872
 20
-78.2950023092
 10
-15762.5288866
 20
-82.6048973165
 10
-15762.4638403
 20
-86.9147839733
 10
-15762.3980484
 20
-91.2246622796
 10
-15762.3315109
 20
-95.5345322354
 10
-15762.2642277
 20
-99.8443938406
 10
-15762.196199
 20
-104.154247095
 10
-15762.1274245
 20
-108.464091999
 10
-15762.0579045
 20
-112.773928553
  0
LINE
  5
f9
330
1F
100
AcDbEntity
  8
Mirrors
100
AcDbLine
 10
-15857.6868114
 20
-113.844909033
 30
0.0
  11
-15869.2161153
 21
136.041648048
 31
0.0
  0
LINE
  5
fa
330
1F
100
AcDbEntity
  8
Mirrors
100
AcDbLine
 10
-4699.76391156
 20
393.643713251
 30
0.0
  11
-4604.13709585
 21
394.887475452
 31
0.0
  0
LINE
  5
fb
330
1F
100
AcDbEntity
  8
Mirrors
100
AcDbLine
 10
-4592.15631266
 20
145.022157544
 30
0.0
  11
-4696.51258241
 21
143.664856427
 31
0.0
  0
LINE
  5
fc
330
1F
100
AcDbEntity
  8
Mirrors
100
AcDbLine
 10
-4686.51342814
 20
143.794909593
 30
0.0
  11
-4689.76475728
 21
393.773766417
 31
0.0
  0
LWPOLYLINE
  5
fd
330
1F
100
AcDbEntity
  8
Mirrors
100
AcDbPolyline
 90
60
 70
0
43
0.0
 10
-4696.51258241
 20
143.664856427
 10
-4696.74088011
 20
147.972596488
 10
-4696.96312515
 20
152.280415272
 10
-4697.1793185
 20
156.588312768
 10
-4697.38946111
 20
160.896288961
 10
-4697.59355388
 20
165.204343842
 10
-4697.7915977
 20
169.512477397
 10
-4697.9835934
 20
173.820689617
 10
-4698.16954178
 20
178.128980491
 10
-4698.34944361
 20
182.437350009
 10
-4698.52329962
 20
186.745798161
 10
-4698.69111051
 20
191.054324939
 10
-4698.85287692
 20
195.362930333
 10
-4699.0085995
 20
199.671614336
 10
-4699.15827882
 20
203.980376941
 10
-4699.30191543
 20
208.289218139
 10
-4699.43950986
 20
212.598137925
 10
-4699.57106258
 20
216.907136291
 10
-4699.69657404
 20
221.216213233
 10
-4699.81604464
 20
225.525368744
 10
-4699.92947477
 20
229.834602821
 10
-4700.03686475
 20
234.143915458
 10
-4700.1382149
 20
238.453306651
 10
-4700.23352547
 20
242.762776398
 10
-4700.3227967
 20
247.072324695
 10
-4700.40602879
 20
251.38195154
 10
-4700.48322189
 20
255.691656931
 10
-4700.55437613
 20
260.001440865
 10
-4700.6194916
 20
264.311303342
 10
-4700.67856835
 20
268.621244361
 10
-4700.67856835
 20
268.621244361
 10
-4700.7316064
 20
272.931263922
 10
-4700.77860573
 20
277.241362025
 10
-4700.81956628
 20
281.551538671
 10
-4700.85448798
 20
285.861793861
 10
-4700.88337069
 20
290.172127596
 10
-4700.90621426
 20
294.482539879
 10
-4700.92301848
 20
298.793030712
 10
-4700.93378314
 20
303.103600099
 10
-4700.93850795
 20
307.414248042
 10
-4700.93719263
 20
311.724974545
 10
-4700.92983682
 20
316.035779614
 10
-4700.91644016
 20
320.346663252
 10
-4700.89700224
 20
324.657625466
 10
-4700.87152261
 20
328.968666261
 10
-4700.84000079
 20
333.279785643
 10
-4700.80243627
 20
337.590983618
 10
-4700.75882849
 20
341.902260195
 10
-4700.70917687
 20
346.213615381
 10
-4700.65348079
 20
350.525049183
 10
-4700.59173958
 20
354.836561611
 10
-4700.52395254
 20
359.148152673
 10
-4700.45011896
 20
363.45982238
 10
-4700.37023806
 20
367.77157074
 10
-4700.28430904
 20
372.083397764
 10
-4700.19233106
 20
376.395303464
 10
-4700.09430325
 20
380.707287851
 10
-4699.9902247
 20
385.019350936
 10
-4699.88009446
 20
389.331492731
 10
-4699.76391156
 20
393.643713251
  0
LINE
  5
fe
330
1F
100
AcDbEntity
  8
Mirrors
100
AcDbLine
 10
-4604.13709585
 20
394.887475452
 30
0.0
  11
-4592.15631266
 21
145.022157544
 31
0.0
  0
LINE
  5
ff
330
1F
100
AcDbEntity
  8
Mirrors
100
AcDbLine
 10
53225.1259382
 20
-132.574194943
 30
0.0
  11
53125.0344838
 21
-132.574194943
 31
0.0
  0
LINE
  5
100
330
1F
100
AcDbEntity
  8
Mirrors
100
AcDbLine
 10
53125.2173927
 20
117.425805057
 30
0.0
  11
53225.1259382
 21
117.425805057
 31
0.0
  0
LINE
  5
101
330
1F
100
AcDbEntity
  8
Mirrors
100
AcDbLine
 10
53215.1259382
 20
117.425805057
 30
0.0
  11
53215.1259382
 21
-132.574194943
 31
0.0
  0
LWPOLYLINE
  5
102
330
1F
100
AcDbEntity
  8
Mirrors
100
AcDbPolyline
 90
60
 70
0
43
0.0
 10
53225.1259382
 20
117.425805057
 10
53225.1258993
 20
113.11546023
 10
53225.1258617
 20
108.805115402
 10
53225.1258255
 20
104.494770574
 10
53225.1257907
 20
100.184425747
 10
53225.1257572
 20
95.8740809193
 10
53225.1257251
 20
91.5637360917
 10
53225.1256944
 20
87.2533912642
 10
53225.125665
 20
82.9430464366
 10
53225.125637
 20
78.632701609
 10
53225.1256104
 20
74.3223567814
 10
53225.1255851
 20
70.0120119538
 10
53225.1255612
 20
65.7016671262
 10
53225.1255386
 20
61.3913222986
 10
53225.1255175
 20
57.080977471
 10
53225.1254977
 20
52.7706326435
 10
53225.1254792
 20
48.4602878159
 10
53225.1254621
 20
44.1499429883
 10
53225.1254464
 20
39.8395981607
 10
53225.1254321
 20
35.5292533331
 10
53225.1254191
 20
31.2189085055
 10
53225.1254075
 20
26.9085636779
 10
53225.1253973
 20
22.5982188504
 10
53225.1253884
 20
18.2878740228
 10
53225.1253809
 20
13.9775291952
 10
53225.1253747
 20
9.6671843676
 10
53225.1253699
 20
5.35683954001
 10
53225.1253665
 20
1.04649471243
 10
53225.1253645
 20
-3.26385011516
 10
53225.1253638
 20
-7.57419494275
 10
53225.1253638
 20
-7.57419494275
 10
53225.1253645
 20
-11.8845397703
 10
53225.1253665
 20
-16.1948845979
 10
53225.1253699
 20
-20.5052294255
 10
53225.1253747
 20
-24.8155742531
 10
53225.1253809
 20
-29.1259190807
 10
53225.1253884
 20
-33.4362639083
 10
53225.1253973
 20
-37.7466087358
 10
53225.1254075
 20
-42.0569535634
 10
53225.1254191
 20
-46.367298391
 10
53225.1254321
 20
-50.6776432186
 10
53225.1254464
 20
-54.9879880462
 10
53225.1254621
 20
-59.2983328738
 10
53225.1254792
 20
-63.6086777014
 10
53225.1254977
 20
-67.919022529
 10
53225.1255175
 20
-72.2293673565
 10
53225.1255386
 20
-76.5397121841
 10
53225.1255612
 20
-80.8500570117
 10
53225.1255851
 20
-85.1604018393
 10
53225.1256104
 20
-89.4707466669
 10
53225.125637
 20
-93.7810914945
 10
53225.125665
 20
-98.0914363221
 10
53225.1256944
 20
-102.40178115
 10
53225.1257251
 20
-106.712125977
 10
53225.1257572
 20
-111.022470805
 10
53225.1257907
 20
-115.332815632
 10
53225.1258255
 20
-119.64316046
 10
53225.1258617
 20
-123.953505288
 10
53225.1258993
 20
-128.263850115
 10
53225.1259382
 20
-132.574194943
  0
LINE
  5
103
330
1F
100
AcDbEntity
  8
Mirrors
100
AcDbLine
 10
53125.0344838
 20
-132.574194943
 30
0.0
  11
53125.2173927
 21
117.425805057
 31
0.0
  0
LINE
  5
104
330
1F
100
AcDbEntity
  8
Mirrors
100
AcDbLine
 10
108.602909379
 20
49939.9888286
 30
0.0
  11
108.602909379
 21
49839.8973742
 31
0.0
  0
LINE
  5
105
330
1F
100
AcDbEntity
  8
Mirrors
100
AcDbLine
 10
-141.397090621
 20
49840.0802831
 30
0.0
  11
-141.397090621
 21
49939.9888286
 31
0.0
  0
LINE
  5
106
330
1F
100
AcDbEntity
  8
Mirrors
100
AcDbLine
 10
-141.397090621
 20
49929.9888286
 30
0.0
  11
108.602909379
 21
49929.9888286
 31
0.0
  0
LWPOLYLINE
  5
107
330
1F
100
AcDbEntity
  8
Mirrors
100
AcDbPolyline
 90
60
 70
0
43
0.0
 10
-141.397090621
 20
49939.9888286
 10
-137.086745794
 20
49939.9887897
 10
-132.776400966
 20
49939.9887521
 10
-128.466056138
 20
49939.9887159
 10
-124.155711311
 20
49939.9886811
 10
-119.845366483
 20
49939.9886476
 10
-115.535021656
 20
49939.9886155
 10
-111.224676828
 20
49939.9885848
 10
-106.914332
 20
49939.9885554
 10
-102.603987173
 20
49939.9885274
 10
-98.2936423453
 20
49939.9885007
 10
-93.9832975177
 20
49939.9884755
 10
-89.6729526901
 20
49939.9884516
 10
-85.3626078626
 20
49939.988429
 10
-81.052263035
 20
49939.9884079
 10
-76.7419182074
 20
49939.988388
 10
-72.4315733798
 20
49939.9883696
 10
-68.1212285522
 20
49939.9883525
 10
-63.8108837246
 20
49939.9883368
 10
-59.500538897
 20
49939.9883225
 10
-55.1901940695
 20
49939.9883095
 10
-50.8798492419
 20
49939.9882979
 10
-46.5695044143
 20
49939.9882876
 10
-42.2591595867
 20
49939.9882788
 10
-37.9488147591
 20
49939.9882712
 10
-33.6384699315
 20
49939.9882651
 10
-29.3281251039
 20
49939.9882603
 10
-25.0177802764
 20
49939.9882569
 10
-20.7074354488
 20
49939.9882548
 10
-16.3970906212
 20
49939.9882542
 10
-16.3970906212
 20
49939.9882542
 10
-12.0867457936
 20
49939.9882548
 10
-7.77640096601
 20
49939.9882569
 10
-3.46605613842
 20
49939.9882603
 10
0.844288689165
 20
49939.9882651
 10
5.15463351675
 20
49939.9882712
 10
9.46497834434
 20
49939.9882788
 10
13.7753231719
 20
49939.9882876
 10
18.0856679995
 20
49939.9882979
 10
22.3960128271
 20
49939.9883095
 10
26.7063576547
 20
49939.9883225
 10
31.0167024823
 20
49939.9883368
 10
35.3270473099
 20
49939.9883525
 10
39.6373921374
 20
49939.9883696
 10
43.947736965
 20
49939.988388
 10
48.2580817926
 20
49939.9884079
 10
52.5684266202
 20
49939.988429
 10
56.8787714478
 20
49939.9884516
 10
61.1891162754
 20
49939.9884755
 10
65.499461103
 20
49939.9885007
 10
69.8098059305
 20
49939.9885274
 10
74.1201507581
 20
49939.9885554
 10
78.4304955857
 20
49939.9885848
 10
82.7408404133
 20
49939.9886155
 10
87.0511852409
 20
49939.9886476
 10
91.3615300685
 20
49939.9886811
 10
95.6718748961
 20
49939.9887159
 10
99.9822197236
 20
49939.9887521
 10
104.292564551
 20
49939.9887897
 10
108.602909379
 20
49939.9888286
  0
LINE
  5
108
330
1F
100
AcDbEntity
  8
Mirrors
100
AcDbLine
 10
108.602909379
 20
49839.8973742
 30
0.0
  11
-141.397090621
 21
49840.0802831
 31
0.0
  0
TEXT
  5
83
330
1F
100
AcDbEntity
  8
text
100
AcDbText
 10
-5.25925579072
 20
11.8863386598
 30
0.0
  40
10.0
  1

 50
0.0
 7
Standard
100
AcDbText
  0
TEXT
  5
84
330
1F
100
AcDbEntity
  8
text
100
AcDbText
 10
57.0959151843
 20
-15593.9365568
 30
0.0
  40
10.0
  1

 50
0.0
 7
Standard
100
AcDbText
  0
TEXT
  5
85
330
1F
100
AcDbEntity
  8
text
100
AcDbText
 10
-4800.70655304
 20
278.337328083
 30
0.0
  40
10.0
  1

 50
0.0
 7
Standard
100
AcDbText
  0
TEXT
  5
86
330
1F
100
AcDbEntity
  8
text
100
AcDbText
 10
53125.1298026
 20
-17.5741942125
 30
0.0
  40
10.0
  1

 50
0.0
 7
Standard
100
AcDbText
  0
TEXT
  5
87
330
1F
100
AcDbEntity
  8
text
100
AcDbText
 10
285.241177062
 20
-4685.0137033
 30
0.0
  40
10.0
  1

 50
0.0
 7
Standard
100
AcDbText
  0
TEXT
  5
88
330
1F
100
AcDbEntity
  8
text
100
AcDbText
 10
285.241177062
 20
-4685.0137033
 30
0.0
  40
10.0
  1

 50
0.0
 7
Standard
100
AcDbText
  0
TEXT
  5
89
330
1F
100
AcDbEntity
  8
text
100
AcDbText
 10
-26.3970859563
 20
2988190.10514
 30
0.0
  40
10.0
  1

 50
0.0
 7
Standard
100
AcDbText
  0
TEXT
  5
8a
330
1F
100
AcDbEntity
  8
text
100
AcDbText
 10
9.9671021224
 20
100.003286658
 30
0.0
  40
10.0
  1

 50
0.0
 7
Standard
100
AcDbText
  0
TEXT
  5
8b
330
1F
100
AcDbEntity
  8
text
100
AcDbText
 10
-15663.5664058
 20
4.53446128761
 30
0.0
  40
10.0
  1

 50
0.0
 7
Standard
100
AcDbText
  0
TEXT
  5
8c
330
1F
100
AcDbEntity
  8
text
100
AcDbText
 10
-19562.1354356
 20
236.432972561
 30
0.0
  40
10.0
  1

 50
0.0
 7
Standard
100
AcDbText
  0
TEXT
  5
8d
330
1F
100
AcDbEntity
  8
text
100
AcDbText
 10
275.498843146
 20
-19226.474853
 30
0.0
  40
10.0
  1

 50
0.0
 7
Standard
100
AcDbText
  0
TEXT
  5
8e
330
1F
100
AcDbEntity
  8
text
100
AcDbText
 10
2991475.24225
 20
2.42580506249
 30
0.0
  40
10.0
  1

 50
0.0
 7
Standard
100
AcDbText
  0
TEXT
  5
8f
330
1F
100
AcDbEntity
  8
text
100
AcDbText
 10
275.28037434
 20
-19326.4575613
 30
0.0
  40
10.0
  1

 50
0.0
 7
Standard
100
AcDbText
  0
TEXT
  5
90
330
1F
100
AcDbEntity
  8
text
100
AcDbText
 10
275.28037434
 20
-19326.4575613
 30
0.0
  40
10.0
  1

 50
0.0
 7
Standard
100
AcDbText
  0
TEXT
  5
91
330
1F
100
AcDbEntity
  8
text
100
AcDbText
 10
-26.3970863741
 20
49839.9882542
 30
0.0
  40
10.0
  1

 50
0.0
 7
Standard
100
AcDbText
  0
TEXT
  5
92
330
1F
100
AcDbEntity
  8
text
100
AcDbText
 10
53225.1259382
 20
-17.5741949427
 30
0.0
  40
10.0
  1

 50
0.0
 7
Standard
100
AcDbText
  0
TEXT
  5
93
330
1F
100
AcDbEntity
  8
text
100
AcDbText
 10
275.498843146
 20
-19226.474853
 30
0.0
  40
10.0
  1

 50
0.0
 7
Standard
100
AcDbText
  0
TEXT
  5
94
330
1F
100
AcDbEntity
  8
text
100
AcDbText
 10
53125.1253638
 20
2.42580505727
 30
0.0
  40
10.0
  1

 50
0.0
 7
Standard
100
AcDbText
  0
TEXT
  5
95
330
1F
100
AcDbEntity
  8
text
100
AcDbText
 10
7.32042761071
 20
10.8512235694
 30
0.0
  40
10.0
  1

 50
0.0
 7
Standard
100
AcDbText
  0
TEXT
  5
96
330
1F
100
AcDbEntity
  8
text
100
AcDbText
 10
-19661.953028
 20
237.719098728
 30
0.0
  40
10.0
  1

 50
0.0
 7
Standard
100
AcDbText
  0
TEXT
  5
97
330
1F
100
AcDbEntity
  8
text
100
AcDbText
 10
7.32042761081
 20
10.8512235695
 30
0.0
  40
10.0
  1

 50
0.0
 7
Standard
100
AcDbText
  0
TEXT
  5
98
330
1F
100
AcDbEntity
  8
text
100
AcDbText
 10
93.4756502587
 20
-36.9093897151
 30
0.0
  40
10.0
  1

 50
0.0
 7
Standard
100
AcDbText
  0
TEXT
  5
99
330
1F
100
AcDbEntity
  8
text
100
AcDbText
 10
57.0959151842
 20
-15593.9365568
 30
0.0
  40
10.0
  1

 50
0.0
 7
Standard
100
AcDbText
  0
TEXT
  5
9a
330
1F
100
AcDbEntity
  8
text
100
AcDbText
 10
-26.364186372
 20
49739.9855441
 30
0.0
  40
10.0
  1

 50
0.0
 7
Standard
100
AcDbText
  0
TEXT
  5
9b
330
1F
100
AcDbEntity
  8
text
100
AcDbText
 10
-99.9922192536
 20
10.0774851362
 30
0.0
  40
10.0
  1

 50
0.0
 7
Standard
100
AcDbText
  0
TEXT
  5
9c
330
1F
100
AcDbEntity
  8
text
100
AcDbText
 10
188.219676878
 20
-34.9901531768
 30
0.0
  40
10.0
  1

 50
0.0
 7
Standard
100
AcDbText
  0
TEXT
  5
9d
330
1F
100
AcDbEntity
  8
text
100
AcDbText
 10
53025.1226537
 20
2.39290505523
 30
0.0
  40
10.0
  1

 50
0.0
 7
Standard
100
AcDbText
  0
TEXT
  5
9e
330
1F
100
AcDbEntity
  8
text
100
AcDbText
 10
275.060596531
 20
-19426.5973404
 30
0.0
  40
10.0
  1

 50
0.0
 7
Standard
100
AcDbText
  0
TEXT
  5
9f
330
1F
100
AcDbEntity
  8
text
100
AcDbText
 10
275.060596531
 20
-19426.5973404
 30
0.0
  40
10.0
  1

 50
0.0
 7
Standard
100
AcDbText
  0
TEXT
  5
a0
330
1F
100
AcDbEntity
  8
text
100
AcDbText
 10
-6.25077109809
 20
49940.0031404
 30
0.0
  40
10.0
  1

 50
0.0
 7
Standard
100
AcDbText
  0
TEXT
  5
a1
330
1F
100
AcDbEntity
  8
text
100
AcDbText
 10
113.11549857
 20
116.40026956
 30
0.0
  40
10.0
  1

 50
0.0
 7
Standard
100
AcDbText
  0
TEXT
  5
a2
330
1F
100
AcDbEntity
  8
text
100
AcDbText
 10
-26.3970763522
 20
49840.0029939
 30
0.0
  40
10.0
  1

 50
0.0
 7
Standard
100
AcDbText
  0
TEXT
  5
a3
330
1F
100
AcDbEntity
  8
text
100
AcDbText
 10
115.514076606
 20
205.736194035
 30
0.0
  40
10.0
  1

 50
0.0
 7
Standard
100
AcDbText
  0
TEXT
  5
a4
330
1F
100
AcDbEntity
  8
text
100
AcDbText
 10
42.676277498
 20
-15593.8252156
 30
0.0
  40
10.0
  1

 50
0.0
 7
Standard
100
AcDbText
  0
TEXT
  5
a5
330
1F
100
AcDbEntity
  8
text
100
AcDbText
 10
-49528.4875905
 20
239.460775476
 30
0.0
  40
10.0
  1

 50
0.0
 7
Standard
100
AcDbText
  0
TEXT
  5
a6
330
1F
100
AcDbEntity
  8
text
100
AcDbText
 10
228.50874802
 20
-4683.80764188
 30
0.0
  40
10.0
  1

 50
0.0
 7
Standard
100
AcDbText
  0
TEXT
  5
a7
330
1F
100
AcDbEntity
  8
text
100
AcDbText
 10
-236.52941894
 20
-15585.409399
 30
0.0
  40
10.0
  1

 50
0.0
 7
Standard
100
AcDbText
  0
TEXT
  5
a8
330
1F
100
AcDbEntity
  8
text
100
AcDbText
 10
9.21471583871
 20
-15756.1344271
 30
0.0
  40
25.0
  1
SR3
 50
0.0
 7
Standard
100
AcDbText
  0
TEXT
  5
a9
330
1F
100
AcDbEntity
  8
text
100
AcDbText
 10
2991575.24175
 20
-20.0741949427
 30
0.0
  40
25.0
  1
ETMX
 50
0.0
 7
Standard
100
AcDbText
  0
TEXT
  5
aa
330
1F
100
AcDbEntity
  8
text
100
AcDbText
 10
-66.397090621
 20
2988327.60464
 30
0.0
  40
25.0
  1
ETMY
 50
0.0
 7
Standard
100
AcDbText
  0
TEXT
  5
ab
330
1F
100
AcDbEntity
  8
text
100
AcDbText
 10
8.27796505273
 20
-38.2905760365
 30
0.0
  40
20.0
  1
BS
 50
0.0
 7
Standard
100
AcDbText
  0
TEXT
  5
ac
330
1F
100
AcDbEntity
  8
text
100
AcDbText
 10
227.671145199
 20
-19388.9355913
 30
0.0
  40
25.0
  1
SRM
 50
0.0
 7
Standard
100
AcDbText
  0
TEXT
  5
ad
330
1F
100
AcDbEntity
  8
text
100
AcDbText
 10
260.640858953
 20
-4545.15181384
 30
0.0
  40
25.0
  1
SR2
 50
0.0
 7
Standard
100
AcDbText
  0
TEXT
  5
ae
330
1F
100
AcDbEntity
  8
text
100
AcDbText
 10
-19549.5901964
 20
214.074999379
 30
0.0
  40
25.0
  1
PRM
 50
0.0
 7
Standard
100
AcDbText
  0
TEXT
  5
af
330
1F
100
AcDbEntity
  8
text
100
AcDbText
 10
-15850.9545987
 20
-0.841698690765
 30
0.0
  40
25.0
  1
PR3
 50
0.0
 7
Standard
100
AcDbText
  0
TEXT
  5
b0
330
1F
100
AcDbEntity
  8
text
100
AcDbText
 10
-4685.64247562
 20
256.804550668
 30
0.0
  40
25.0
  1
PR2
 50
0.0
 7
Standard
100
AcDbText
  0
TEXT
  5
b1
330
1F
100
AcDbEntity
  8
text
100
AcDbText
 10
53125.1259382
 20
-20.0741949427
 30
0.0
  40
25.0
  1
ITMX
 50
0.0
 7
Standard
100
AcDbText
  0
TEXT
  5
b2
330
1F
100
AcDbEntity
  8
text
100
AcDbText
 10
-66.3970906212
 20
49877.4888286
 30
0.0
  40
25.0
  1
ITMY
 50
0.0
 7
Standard
100
AcDbText
  0
LINE
  5
b4
330
1F
100
AcDbEntity
  8
main_beam
100
AcDbLine
 10
2.12453343806e-06
 20
2.1235870562e-06
 30
0.0
  11
88.2163923434
 21
-25.0230531789
 31
0.0
  0
LINE
  5
b5
330
1F
100
AcDbEntity
  8
main_beam
100
AcDbLine
 10
24.9447982983
 20
-88.0900800295
 30
0.0
  11
47.2387817239
 21
-15693.9507404
 31
0.0
  0
LINE
  5
b6
330
1F
100
AcDbEntity
  8
main_beam
100
AcDbLine
 10
-19462.1074509
 20
226.716889076
 30
0.0
  11
-4700.67856835
 21
268.621244598
 31
0.0
  0
LINE
  5
b7
330
1F
100
AcDbEntity
  8
main_beam
100
AcDbLine
 10
53125.1259382
 20
-7.57419494273
 30
0.0
  11
53025.1265181
 21
-7.60709421459
 31
0.0
  0
LINE
  5
b8
330
1F
100
AcDbEntity
  8
main_beam
100
AcDbLine
 10
47.2387817239
 20
-15693.9507404
 30
0.0
  11
297.490829174
 21
-4585.26428715
 31
0.0
  0
LINE
  5
b9
330
1F
100
AcDbEntity
  8
main_beam
100
AcDbLine
 10
47.2387817238
 20
-15693.9507404
 30
0.0
  11
297.490829174
 21
-4585.26428715
 31
0.0
  0
LINE
  5
ba
330
1F
100
AcDbEntity
  8
main_beam
100
AcDbLine
 10
-16.3970863741
 20
49939.9882542
 30
0.0
  11
-16.3970859563
 21
2988290.10514
 31
0.0
  0
LINE
  5
bb
330
1F
100
AcDbEntity
  8
main_beam
100
AcDbLine
 10
-16.3970863741
 20
49839.9888286
 30
0.0
  11
2.12443775766e-06
 21
2.12349249296e-06
 31
0.0
  0
LINE
  5
bc
330
1F
100
AcDbEntity
  8
main_beam
100
AcDbLine
 10
-4700.67856835
 20
268.621244598
 30
0.0
  11
-15763.7712638
 21
12.2147239101
 31
0.0
  0
LINE
  5
bd
330
1F
100
AcDbEntity
  8
main_beam
100
AcDbLine
 10
-19562.089995
 20
226.433061264
 30
0.0
  11
-19462.1074509
 21
226.716889076
 31
0.0
  0
LINE
  5
be
330
1F
100
AcDbEntity
  8
main_beam
100
AcDbLine
 10
297.490829174
 20
-4585.26428715
 30
0.0
  11
265.280360951
 21
-19326.4527637
 31
0.0
  0
LINE
  5
bf
330
1F
100
AcDbEntity
  8
main_beam
100
AcDbLine
 10
53225.1253638
 20
-7.57419494273
 30
0.0
  11
2991575.24225
 21
-7.57419493751
 31
0.0
  0
LINE
  5
c0
330
1F
100
AcDbEntity
  8
main_beam
100
AcDbLine
 10
265.280360951
 20
-19326.4527637
 30
0.0
  11
265.061892145
 21
-19426.4354719
 31
0.0
  0
LINE
  5
c1
330
1F
100
AcDbEntity
  8
main_beam
100
AcDbLine
 10
265.280360951
 20
-19326.4527637
 30
0.0
  11
265.061892145
 21
-19426.4354719
 31
0.0
  0
LINE
  5
c2
330
1F
100
AcDbEntity
  8
main_beam
100
AcDbLine
 10
-16.3970863741
 20
49839.9888286
 30
0.0
  11
-16.3970863741
 21
49939.9882542
 31
0.0
  0
LINE
  5
c3
330
1F
100
AcDbEntity
  8
main_beam
100
AcDbLine
 10
53225.1253638
 20
-7.57419494273
 30
0.0
  11
53125.1259382
 21
-7.57419494273
 31
0.0
  0
LINE
  5
c4
330
1F
100
AcDbEntity
  8
main_beam
100
AcDbLine
 10
297.490829174
 20
-4585.26428715
 30
0.0
  11
265.280360951
 21
-19326.4527637
 31
0.0
  0
LINE
  5
c5
330
1F
100
AcDbEntity
  8
main_beam
100
AcDbLine
 10
53125.1259382
 20
-7.57419494273
 30
0.0
  11
53225.1253638
 21
-7.57419494273
 31
0.0
  0
LINE
  5
c6
330
1F
100
AcDbEntity
  8
main_beam
100
AcDbLine
 10
2.12443751479e-06
 20
2.1234922154e-06
 30
0.0
  11
24.9447982982
 21
-88.0900800296
 31
0.0
  0
LINE
  5
c7
330
1F
100
AcDbEntity
  8
main_beam
100
AcDbLine
 10
-21561.9243858
 20
252.170371452
 30
0.0
  11
-19562.089995
 21
226.433061264
 31
0.0
  0
LINE
  5
c8
330
1F
100
AcDbEntity
  8
main_beam
100
AcDbLine
 10
2.12454054349e-06
 20
2.12359346774e-06
 30
0.0
  11
24.9447982983
 21
-88.0900800295
 31
0.0
  0
LINE
  5
c9
330
1F
100
AcDbEntity
  8
main_beam
100
AcDbLine
 10
88.2163923434
 20
-25.0230531788
 30
0.0
  11
2.12454051574e-06
 21
2.12359346427e-06
 31
0.0
  0
LINE
  5
ca
330
1F
100
AcDbEntity
  8
main_beam
100
AcDbLine
 10
24.9447982982
 20
-88.0900800296
 30
0.0
  11
47.2387817238
 21
-15693.9507404
 31
0.0
  0
LINE
  5
cb
330
1F
100
AcDbEntity
  8
main_beam
100
AcDbLine
 10
2.12453343806e-06
 20
2.1235870562e-06
 30
0.0
  11
-16.3970863741
 21
49839.9888286
 31
0.0
  0
LINE
  5
cc
330
1F
100
AcDbEntity
  8
main_beam
100
AcDbLine
 10
-15763.7712638
 20
12.2147239101
 30
0.0
  11
2.12453343806e-06
 21
2.12358705967e-06
 31
0.0
  0
LINE
  5
cd
330
1F
100
AcDbEntity
  8
main_beam
100
AcDbLine
 10
53125.1259382
 20
-7.57419494273
 30
0.0
  11
88.2163923434
 21
-25.0230531788
 31
0.0
  0
LINE
  5
ce
330
1F
100
AcDbEntity
  8
main_beam
100
AcDbLine
 10
88.2163923434
 20
-25.0230531789
 30
0.0
  11
53125.1259382
 21
-7.57419494273
 31
0.0
  0
LINE
  5
cf
330
1F
100
AcDbEntity
  8
main_beam
100
AcDbLine
 10
265.061892145
 20
-19426.4354719
 30
0.0
  11
263.273008854
 21
-19526.4024143
 31
0.0
  0
LINE
  5
d0
330
1F
100
AcDbEntity
  8
main_beam
100
AcDbLine
 10
265.061892145
 20
-19426.4354719
 30
0.0
  11
263.273008854
 21
-19526.4024143
 31
0.0
  0
LINE
  5
7d
330
1F
100
AcDbEntity
  8
poy
100
AcDbLine
 10
-16.2507600214
 20
49939.9882542
 30
0.0
  11
-16.1044312034
 21
49839.9886145
 31
0.0
  0
LINE
  5
7e
330
1F
100
AcDbEntity
  8
poy
100
AcDbLine
 10
105.759135223
 20
105.711991371
 30
0.0
  11
130.857258608
 21
17.4799483375
 31
0.0
  0
LINE
  5
7f
330
1F
100
AcDbEntity
  8
poy
100
AcDbLine
 10
-16.3970863741
 20
49839.9888286
 30
0.0
  11
-16.2507600214
 21
49939.9882542
 31
0.0
  0
LINE
  5
80
330
1F
100
AcDbEntity
  8
poy
100
AcDbLine
 10
-16.1044312034
 20
49839.9886145
 30
0.0
  11
105.759135223
 21
105.711991371
 31
0.0
  0
LINE
  5
81
330
1F
100
AcDbEntity
  8
poy
100
AcDbLine
 10
105.759135223
 20
105.711991371
 30
0.0
  11
-49628.4582096
 21
249.750348537
 31
0.0
  0
LWPOLYLINE
  5
10c
330
1F
100
AcDbEntity
  8
pox_width
100
AcDbPolyline
 90
10
 70
0
43
0.0
 10
123.759229021
 20
10.404867817
 10
117.568548762
 20
-1734.54695076
 10
111.377876341
 20
-3479.49876937
 10
105.187211738
 20
-5224.45058801
 10
98.9965549281
 20
-6969.40240668
 10
92.8059058903
 20
-8714.35422537
 10
86.6152646017
 20
-10459.3060441
 10
80.42463104
 20
-12204.2578628
 10
74.2340051828
 20
-13949.2096816
 10
68.0433870079
 20
-15694.1615004
  0
LWPOLYLINE
  5
10d
330
1F
100
AcDbEntity
  8
pox_width
100
AcDbPolyline
 90
10
 70
0
43
0.0
 10
52.6721544912
 20
-60.4523708188
 10
46.4415029375
 20
-1797.44267248
 10
40.2108436165
 20
-3534.4329741
 10
33.9801765506
 20
-5271.4232757
 10
27.7495017621
 20
-7008.41357728
 10
21.5188192732
 20
-8745.40387882
 10
15.2881291061
 20
-10482.3941803
 10
9.05743128281
 20
-12219.3844818
 10
2.8267258253
 20
-13956.3747833
 10
-3.40398724452
 20
-15693.3650847
  0
LWPOLYLINE
  5
10e
330
1F
100
AcDbEntity
  8
pox_width
100
AcDbPolyline
 90
100
 70
0
43
0.0
 10
-3.40430302259
 20
-15693.3650808
 10
-0.983023226758
 20
-15581.1480722
 10
1.43825653652
 20
-15468.9310636
 10
3.85953626634
 20
-15356.714055
 10
6.28081596178
 20
-15244.4970464
 10
8.70209562187
 20
-15132.2800379
 10
11.1233752456
 20
-15020.0630293
 10
13.5446548319
 20
-14907.8460207
 10
15.9659343798
 20
-14795.6290121
 10
18.3872138881
 20
-14683.4120035
 10
20.8084933555
 20
-14571.1949949
 10
23.2297727811
 20
-14458.9779864
 10
25.6510521633
 20
-14346.7609778
 10
28.072331501
 20
-14234.5439692
 10
30.4936107928
 20
-14122.3269606
 10
32.9148900373
 20
-14010.109952
 10
35.3361692329
 20
-13897.8929434
 10
37.7574483781
 20
-13785.6759348
 10
40.1787274713
 20
-13673.4589262
 10
42.6000065109
 20
-13561.2419176
 10
45.021285495
 20
-13449.024909
 10
47.4425644219
 20
-13336.8079004
 10
49.8638432896
 20
-13224.5908919
 10
52.2851220962
 20
-13112.3738833
 10
54.7064008394
 20
-13000.1568747
 10
57.1276795173
 20
-12887.9398661
 10
59.5489581273
 20
-12775.7228575
 10
61.9702366673
 20
-12663.5058489
 10
64.3915151346
 20
-12551.2888402
 10
66.8127935266
 20
-12439.0718316
 10
69.2340718406
 20
-12326.854823
 10
71.6553500736
 20
-12214.6378144
 10
74.0766282226
 20
-12102.4208058
 10
76.4979062845
 20
-11990.2037972
 10
78.9191842558
 20
-11877.9867886
 10
81.340462133
 20
-11765.76978
 10
83.7617399124
 20
-11653.5527714
 10
86.18301759
 20
-11541.3357627
 10
88.6042951618
 20
-11429.1187541
 10
91.0255726233
 20
-11316.9017455
 10
93.44684997
 20
-11204.6847369
 10
95.8681271969
 20
-11092.4677282
 10
98.289404299
 20
-10980.2507196
 10
100.710681271
 20
-10868.033711
 10
103.131958106
 20
-10755.8167023
 10
105.5532348
 20
-10643.5996937
 10
107.974511345
 20
-10531.3826851
 10
110.395787734
 20
-10419.1656764
 10
112.81706396
 20
-10306.9486678
 10
115.238340016
 20
-10194.7316591
 10
117.659615892
 20
-10082.5146505
 10
120.080891581
 20
-9970.29764183
 10
122.502167072
 20
-9858.08063317
 10
124.923442357
 20
-9745.8636245
 10
127.344717423
 20
-9633.64661584
 10
129.765992259
 20
-9521.42960716
 10
132.187266854
 20
-9409.21259849
 10
134.608541193
 20
-9296.99558981
 10
137.029815263
 20
-9184.77858112
 10
139.451089048
 20
-9072.56157243
 10
141.872362532
 20
-8960.34456373
 10
144.293635697
 20
-8848.12755503
 10
146.714908523
 20
-8735.91054632
 10
149.13618099
 20
-8623.6935376
 10
151.557453076
 20
-8511.47652888
 10
153.978724755
 20
-8399.25952015
 10
156.399996002
 20
-8287.04251141
 10
158.821266786
 20
-8174.82550266
 10
161.242537078
 20
-8062.6084939
 10
163.663806841
 20
-7950.39148514
 10
166.085076038
 20
-7838.17447636
 10
168.506344627
 20
-7725.95746757
 10
170.927612563
 20
-7613.74045877
 10
173.348879794
 20
-7501.52344995
 10
175.770146266
 20
-7389.30644112
 10
178.191411915
 20
-7277.08943228
 10
180.612676673
 20
-7164.87242342
 10
183.033940463
 20
-7052.65541454
 10
185.4552032
 20
-6940.43840564
 10
187.876464785
 20
-6828.22139672
 10
190.297725112
 20
-6716.00438778
 10
192.718984057
 20
-6603.78737881
 10
195.14024148
 20
-6491.57036981
 10
197.561497223
 20
-6379.35336078
 10
199.982751105
 20
-6267.13635172
 10
202.404002917
 20
-6154.91934261
 10
204.825252417
 20
-6042.70233347
 10
207.246499327
 20
-5930.48532427
 10
209.667743318
 20
-5818.26831502
 10
212.088984006
 20
-5706.05130571
 10
214.510220936
 20
-5593.83429633
 10
216.931453565
 20
-5481.61728687
 10
219.352681239
 20
-5369.40027731
 10
221.773903168
 20
-5257.18326765
 10
224.195118381
 20
-5144.96625786
 10
226.616325675
 20
-5032.74924792
 10
229.037523545
 20
-4920.53223781
 10
231.458710075
 20
-4808.31522749
 10
233.879882795
 20
-4696.0982169
 10
236.301038459
 20
-4583.881206
  0
LWPOLYLINE
  5
10f
330
1F
100
AcDbEntity
  8
pox_width
100
AcDbPolyline
 90
100
 70
0
43
0.0
 10
68.0429263561
 20
-15694.1614959
 10
69.8248853197
 20
-15581.9390368
 10
71.606844316
 20
-15469.7165776
 10
73.3888033457
 20
-15357.4941184
 10
75.1707624098
 20
-15245.2716593
 10
76.9527215092
 20
-15133.0492001
 10
78.734680645
 20
-15020.8267409
 10
80.5166398181
 20
-14908.6042818
 10
82.2985990298
 20
-14796.3818226
 10
84.0805582811
 20
-14684.1593634
 10
85.8625175731
 20
-14571.9369043
 10
87.6444769071
 20
-14459.7144451
 10
89.4264362844
 20
-14347.4919859
 10
91.2083957062
 20
-14235.2695268
 10
92.9903551739
 20
-14123.0470676
 10
94.772314689
 20
-14010.8246085
 10
96.5542742529
 20
-13898.6021493
 10
98.3362338672
 20
-13786.3796901
 10
100.118193533
 20
-13674.157231
 10
101.900153253
 20
-13561.9347718
 10
103.682113029
 20
-13449.7123127
 10
105.464072861
 20
-13337.4898535
 10
107.246032753
 20
-13225.2673944
 10
109.027992706
 20
-13113.0449352
 10
110.809952722
 20
-13000.8224761
 10
112.591912804
 20
-12888.6000169
 10
114.373872954
 20
-12776.3775578
 10
116.155833173
 20
-12664.1550986
 10
117.937793465
 20
-12551.9326395
 10
119.719753833
 20
-12439.7101803
 10
121.501714278
 20
-12327.4877212
 10
123.283674805
 20
-12215.2652621
 10
125.065635415
 20
-12103.0428029
 10
126.847596113
 20
-11990.8203438
 10
128.629556901
 20
-11878.5978846
 10
130.411517784
 20
-11766.3754255
 10
132.193478764
 20
-11654.1529664
 10
133.975439846
 20
-11541.9305072
 10
135.757401033
 20
-11429.7080481
 10
137.539362331
 20
-11317.485589
 10
139.321323744
 20
-11205.2631299
 10
141.103285277
 20
-11093.0406707
 10
142.885246934
 20
-10980.8182116
 10
144.667208722
 20
-10868.5957525
 10
146.449170646
 20
-10756.3732934
 10
148.231132712
 20
-10644.1508343
 10
150.013094927
 20
-10531.9283752
 10
151.795057297
 20
-10419.7059161
 10
153.57701983
 20
-10307.483457
 10
155.358982534
 20
-10195.2609979
 10
157.140945417
 20
-10083.0385388
 10
158.922908488
 20
-9970.81607967
 10
160.704871756
 20
-9858.59362058
 10
162.486835231
 20
-9746.37116149
 10
164.268798924
 20
-9634.14870241
 10
166.050762847
 20
-9521.92624333
 10
167.832727012
 20
-9409.70378426
 10
169.614691432
 20
-9297.48132519
 10
171.396656122
 20
-9185.25886613
 10
173.178621096
 20
-9073.03640707
 10
174.960586372
 20
-8960.81394802
 10
176.742551967
 20
-8848.59148897
 10
178.5245179
 20
-8736.36902993
 10
180.306484192
 20
-8624.1465709
 10
182.088450866
 20
-8511.92411187
 10
183.870417946
 20
-8399.70165286
 10
185.652385458
 20
-8287.47919385
 10
187.434353433
 20
-8175.25673485
 10
189.216321901
 20
-8063.03427585
 10
190.998290897
 20
-7950.81181687
 10
192.78026046
 20
-7838.5893579
 10
194.562230629
 20
-7726.36689894
 10
196.344201453
 20
-7614.14443999
 10
198.12617298
 20
-7501.92198106
 10
199.908145268
 20
-7389.69952214
 10
201.690118378
 20
-7277.47706323
 10
203.472092378
 20
-7165.25460434
 10
205.254067347
 20
-7053.03214547
 10
207.036043369
 20
-6940.80968662
 10
208.818020542
 20
-6828.58722779
 10
210.599998974
 20
-6716.36476899
 10
212.381978788
 20
-6604.14231021
 10
214.163960123
 20
-6491.91985146
 10
215.945943137
 20
-6379.69739274
 10
217.727928013
 20
-6267.47493405
 10
219.509914959
 20
-6155.2524754
 10
221.291904216
 20
-6043.0300168
 10
223.073896063
 20
-5930.80755825
 10
224.855890829
 20
-5818.58509975
 10
226.637888897
 20
-5706.36264131
 10
228.419890722
 20
-5594.14018294
 10
230.201896848
 20
-5481.91772466
 10
231.983907927
 20
-5369.69526646
 10
233.765924751
 20
-5257.47280837
 10
235.547948289
 20
-5145.25035041
 10
237.329979744
 20
-5033.0278926
 10
239.112020622
 20
-4920.80543497
 10
240.894072836
 20
-4808.58297754
 10
242.676138856
 20
-4696.36052038
 10
244.458221927
 20
-4584.13806353
  0
LWPOLYLINE
  5
110
330
1F
100
AcDbEntity
  8
pox_width
100
AcDbPolyline
 90
10
 70
0
43
0.0
 10
244.458159117
 20
-4584.13806164
 10
189.726562236
 20
-5817.56650217
 10
134.997824302
 20
-7050.99506923
 10
80.2722666042
 20
-8284.42377706
 10
25.5502511629
 20
-9517.85264166
 10
-29.1678148563
 20
-10751.2816811
 10
-83.8814748391
 20
-11984.7109155
 10
-138.5902189
 20
-13218.1403675
 10
-193.293481054
 20
-14451.5700621
 10
-247.990638089
 20
-15685.0000269
  0
LWPOLYLINE
  5
111
330
1F
100
AcDbEntity
  8
pox_width
100
AcDbPolyline
 90
10
 70
0
43
0.0
 10
236.300959159
 20
-4583.88120339
 10
181.850146922
 20
-5817.31049614
 10
127.39647577
 20
-7050.73966235
 10
72.9396244174
 20
-8284.16868781
 10
18.4792308541
 20
-9517.59755649
 10
-35.9851120775
 20
-10751.0262504
 10
-90.4538609809
 20
-11984.4547493
 10
-144.927525729
 20
-13217.8830306
 10
-199.406672293
 20
-14451.3110692
 10
-253.891923867
 20
-15684.7388377
  0
LWPOLYLINE
  5
114
330
1F
100
AcDbEntity
  8
main_beam_width
100
AcDbPolyline
 90
10
 70
0
43
0.0
 10
95.7597071518
 20
95.717020707
 10
105.58444555
 20
92.9298666166
 10
115.409183948
 20
90.1427125264
 10
125.233922347
 20
87.3555584363
 10
135.058660745
 20
84.5684043465
 10
144.883399144
 20
81.7812502568
 10
154.708137542
 20
78.9940961673
 10
164.532875941
 20
76.2069420779
 10
174.357614339
 20
73.4197879888
 10
184.182352738
 20
70.6326338998
  0
LWPOLYLINE
  5
115
330
1F
100
AcDbEntity
  8
main_beam_width
100
AcDbPolyline
 90
10
 70
0
43
0.0
 10
-95.7628661178
 20
-95.7201782649
 10
-85.9839641566
 20
-98.4937040562
 10
-76.2050621955
 20
-101.267229848
 10
-66.4261602344
 20
-104.040755639
 10
-56.6472582734
 20
-106.814281431
 10
-46.8683563124
 20
-109.587807223
 10
-37.0894543515
 20
-112.361333015
 10
-27.3105523906
 20
-115.134858807
 10
-17.5316504298
 20
-117.9083846
 10
-7.75274846905
 20
-120.681910393
  0
LWPOLYLINE
  5
116
330
1F
100
AcDbEntity
  8
main_beam_width
100
AcDbPolyline
 90
10
 70
0
43
0.0
 10
120.762196262
 20
7.41752494475
 10
123.346780554
 20
-1737.27149269
 10
125.931385789
 20
-3481.9605103
 10
128.516011907
 20
-5226.64952788
 10
131.100658847
 20
-6971.33854543
 10
133.685326551
 20
-8716.02756295
 10
136.270014958
 20
-10460.7165804
 10
138.854724009
 20
-12205.4055979
 10
141.439453645
 20
-13950.0946153
 10
144.024203808
 20
-15694.7836327
  0
LWPOLYLINE
  5
117
330
1F
100
AcDbEntity
  8
main_beam_width
100
AcDbPolyline
 90
10
 70
0
43
0.0
 10
-70.882662899
 20
-183.607715701
 10
-68.5119586143
 20
-1906.84483886
 10
-66.141274755
 20
-3630.08196206
 10
-63.7706112631
 20
-5353.31908528
 10
-61.3999680809
 20
-7076.55620853
 10
-59.0293451508
 20
-8799.79333181
 10
-56.6587424154
 20
-10523.0304551
 10
-54.2881598175
 20
-12246.2675785
 10
-51.9175973003
 20
-13969.5047018
 10
-49.5470548068
 20
-15692.7418252
  0
LWPOLYLINE
  5
118
330
1F
100
AcDbEntity
  8
main_beam_width
100
AcDbPolyline
 90
10
 70
0
43
0.0
 10
-19462.1291577
 20
234.363447151
 10
-17821.9818098
 20
239.335916695
 10
-16181.8345542
 20
244.340886296
 10
-14541.6873797
 20
249.374441353
 10
-12901.5402762
 20
254.433021568
 10
-11261.3932347
 20
259.513451603
 10
-9621.24624739
 20
264.612938623
 10
-7981.09930724
 20
269.729049724
 10
-6340.9524083
 20
274.859678925
 10
-4700.80554542
 20
280.0030102
  0
LWPOLYLINE
  5
119
330
1F
100
AcDbEntity
  8
main_beam_width
100
AcDbPolyline
 90
10
 70
0
43
0.0
 10
-19462.0857441
 20
219.070331001
 10
-17821.9108826
 20
223.409948519
 10
-16181.7359289
 20
227.717065026
 10
-14541.5608941
 20
231.995595295
 10
-12901.3857882
 20
236.249099779
 10
-11261.2106203
 20
240.480753944
 10
-9621.03539833
 20
244.693350731
 10
-7980.86012914
 20
248.889323126
 10
-6340.68481872
 20
253.07077718
 10
-4700.50947226
 20
257.239528974
  0
LWPOLYLINE
  5
11a
330
1F
100
AcDbEntity
  8
main_beam_width
100
AcDbPolyline
 90
10
 70
0
43
0.0
 10
53125.058029
 20
-100.392533572
 10
53113.9579207
 20
-100.395820965
 10
53102.8578123
 20
-100.399108359
 10
53091.7577039
 20
-100.402395754
 10
53080.6575956
 20
-100.405683149
 10
53069.5574872
 20
-100.408970546
 10
53058.4573788
 20
-100.412257944
 10
53047.3572705
 20
-100.415545343
 10
53036.2571621
 20
-100.418832742
 10
53025.1570537
 20
-100.422120143
  0
LWPOLYLINE
  5
11b
330
1F
100
AcDbEntity
  8
main_beam_width
100
AcDbPolyline
 90
10
 70
0
43
0.0
 10
53125.1938474
 20
85.2441501512
 10
53114.0718624
 20
85.2401258766
 10
53102.9498774
 20
85.2361016029
 10
53091.8278924
 20
85.2320773302
 10
53080.7059074
 20
85.2280530584
 10
53069.5839224
 20
85.2240287876
 10
53058.4619374
 20
85.2200045177
 10
53047.3399524
 20
85.2159802488
 10
53036.2179674
 20
85.2119559808
 10
53025.0959824
 20
85.2079317137
  0
LWPOLYLINE
  5
11c
330
1F
100
AcDbEntity
  8
main_beam_width
100
AcDbPolyline
 90
100
 70
0
43
0.0
 10
-49.550116987
 20
-15692.741781
 10
-46.1562121828
 20
-15580.5434543
 10
-42.7623074657
 20
-15468.3451275
 10
-39.368402838
 20
-15356.1468008
 10
-35.9744983021
 20
-15243.9484741
 10
-32.5805938607
 20
-15131.7501473
 10
-29.1866895165
 20
-15019.5518206
 10
-25.7927852722
 20
-14907.3534938
 10
-22.3988811307
 20
-14795.1551671
 10
-19.004977095
 20
-14682.9568403
 10
-15.6110731683
 20
-14570.7585136
 10
-12.2171693538
 20
-14458.5601868
 10
-8.82326565478
 20
-14346.36186
 10
-5.42936207487
 20
-14234.1635333
 10
-2.03545861769
 20
-14121.9652065
 10
1.35844471296
 20
-14009.7668798
 10
4.75234791312
 20
-13897.568553
 10
8.14625097865
 20
-13785.3702262
 10
11.5401539053
 20
-13673.1718994
 10
14.9340566884
 20
-13560.9735726
 10
18.3279593235
 20
-13448.7752459
 10
21.7218618055
 20
-13336.5769191
 10
25.1157641294
 20
-13224.3785923
 10
28.5096662899
 20
-13112.1802655
 10
31.9035682812
 20
-12999.9819387
 10
35.2974700977
 20
-12887.7836119
 10
38.6913717332
 20
-12775.5852851
 10
42.0852731812
 20
-12663.3869583
 10
45.479174435
 20
-12551.1886315
 10
48.8730754877
 20
-12438.9903046
 10
52.2669763318
 20
-12326.7919778
 10
55.6608769596
 20
-12214.593651
 10
59.0547773629
 20
-12102.3953242
 10
62.4486775332
 20
-11990.1969973
 10
65.8425774616
 20
-11877.9986705
 10
69.2364771384
 20
-11765.8003436
 10
72.6303765539
 20
-11653.6020168
 10
76.0242756975
 20
-11541.4036899
 10
79.418174558
 20
-11429.205363
 10
82.812073124
 20
-11317.0070362
 10
86.205971383
 20
-11204.8087093
 10
89.599869322
 20
-11092.6103824
 10
92.9937669274
 20
-10980.4120555
 10
96.3876641844
 20
-10868.2137286
 10
99.7815610777
 20
-10756.0154017
 10
103.175457591
 20
-10643.8170747
 10
106.569353707
 20
-10531.6187478
 10
109.963249407
 20
-10419.4204209
 10
113.357144672
 20
-10307.2220939
 10
116.75103948
 20
-10195.023767
 10
120.14493381
 20
-10082.82544
 10
123.538827638
 20
-9970.62711301
 10
126.932720939
 20
-9858.42878601
 10
130.326613686
 20
-9746.23045901
 10
133.72050585
 20
-9634.03213199
 10
137.114397401
 20
-9521.83380495
 10
140.508288304
 20
-9409.6354779
 10
143.902178526
 20
-9297.43715084
 10
147.296068027
 20
-9185.23882376
 10
150.689956767
 20
-9073.04049666
 10
154.083844702
 20
-8960.84216955
 10
157.477731784
 20
-8848.64384241
 10
160.871617961
 20
-8736.44551526
 10
164.265503179
 20
-8624.24718808
 10
167.659387377
 20
-8512.04886088
 10
171.053270488
 20
-8399.85053366
 10
174.447152443
 20
-8287.65220641
 10
177.841033163
 20
-8175.45387913
 10
181.234912564
 20
-8063.25555183
 10
184.628790554
 20
-7951.05722449
 10
188.02266703
 20
-7838.85889711
 10
191.416541882
 20
-7726.6605697
 10
194.810414987
 20
-7614.46224225
 10
198.204286209
 20
-7502.26391476
 10
201.5981554
 20
-7390.06558722
 10
204.992022393
 20
-7277.86725964
 10
208.385887003
 20
-7165.668932
 10
211.779749026
 20
-7053.4706043
 10
215.173608231
 20
-6941.27227654
 10
218.567464361
 20
-6829.0739487
 10
221.961317124
 20
-6716.8756208
 10
225.355166192
 20
-6604.67729281
 10
228.749011192
 20
-6492.47896472
 10
232.142851702
 20
-6380.28063654
 10
235.536687234
 20
-6268.08230824
 10
238.930517231
 20
-6155.88397982
 10
242.324341048
 20
-6043.68565126
 10
245.718157936
 20
-5931.48732255
 10
249.11196702
 20
-5819.28899366
 10
252.505767272
 20
-5707.09066457
 10
255.899557474
 20
-5594.89233525
 10
259.293336172
 20
-5482.69400567
 10
262.687101621
 20
-5370.4956758
 10
266.080851702
 20
-5258.29734558
 10
269.474583817
 20
-5146.09901495
 10
272.868294751
 20
-5033.90068385
 10
276.261980473
 20
-4921.70235218
 10
279.655635856
 20
-4809.50401983
 10
283.049254287
 20
-4697.30568664
 10
286.442827079
 20
-4585.10735243
  0
LWPOLYLINE
  5
11d
330
1F
100
AcDbEntity
  8
main_beam_width
100
AcDbPolyline
 90
100
 70
0
43
0.0
 10
144.018260514
 20
-15694.7835931
 10
145.680039564
 20
-15582.5673979
 10
147.3418187
 20
-15470.3512026
 10
149.003597927
 20
-15358.1350074
 10
150.665377245
 20
-15245.9188121
 10
152.327156658
 20
-15133.7026169
 10
153.988936168
 20
-15021.4864216
 10
155.650715778
 20
-14909.2702264
 10
157.31249549
 20
-14797.0540311
 10
158.974275309
 20
-14684.8378359
 10
160.636055236
 20
-14572.6216407
 10
162.297835276
 20
-14460.4054454
 10
163.959615431
 20
-14348.1892502
 10
165.621395706
 20
-14235.973055
 10
167.283176103
 20
-14123.7568597
 10
168.944956626
 20
-14011.5406645
 10
170.606737281
 20
-13899.3244693
 10
172.268518069
 20
-13787.1082741
 10
173.930298997
 20
-13674.8920789
 10
175.592080068
 20
-13562.6758837
 10
177.253861288
 20
-13450.4596885
 10
178.91564266
 20
-13338.2434933
 10
180.577424191
 20
-13226.0272981
 10
182.239205885
 20
-13113.8111029
 10
183.900987748
 20
-13001.5949077
 10
185.562769786
 20
-12889.3787125
 10
187.224552005
 20
-12777.1625173
 10
188.886334412
 20
-12664.9463221
 10
190.548117013
 20
-12552.7301269
 10
192.209899815
 20
-12440.5139318
 10
193.871682825
 20
-12328.2977366
 10
195.533466052
 20
-12216.0815414
 10
197.195249504
 20
-12103.8653463
 10
198.857033188
 20
-11991.6491511
 10
200.518817115
 20
-11879.432956
 10
202.180601293
 20
-11767.2167608
 10
203.842385733
 20
-11655.0005657
 10
205.504170444
 20
-11542.7843706
 10
207.165955439
 20
-11430.5681755
 10
208.827740728
 20
-11318.3519803
 10
210.489526324
 20
-11206.1357852
 10
212.15131224
 20
-11093.9195901
 10
213.81309849
 20
-10981.703395
 10
215.474885089
 20
-10869.4871999
 10
217.136672051
 20
-10757.2710049
 10
218.798459393
 20
-10645.0548098
 10
220.460247133
 20
-10532.8386147
 10
222.122035288
 20
-10420.6224197
 10
223.783823879
 20
-10308.4062246
 10
225.445612927
 20
-10196.1900296
 10
227.107402452
 20
-10083.9738346
 10
228.76919248
 20
-9971.75763959
 10
230.430983035
 20
-9859.54144459
 10
232.092774144
 20
-9747.32524961
 10
233.754565837
 20
-9635.10905464
 10
235.416358143
 20
-9522.89285968
 10
237.078151095
 20
-9410.67666474
 10
238.73994473
 20
-9298.46046981
 10
240.401739086
 20
-9186.2442749
 10
242.063534202
 20
-9074.02808
 10
243.725330125
 20
-8961.81188513
 10
245.3871269
 20
-8849.59569027
 10
247.048924579
 20
-8737.37949544
 10
248.710723219
 20
-8625.16330062
 10
250.372522879
 20
-8512.94710583
 10
252.034323625
 20
-8400.73091106
 10
253.696125528
 20
-8288.51471632
 10
255.357928666
 20
-8176.29852161
 10
257.019733124
 20
-8064.08232692
 10
258.681538993
 20
-7951.86613227
 10
260.343346375
 20
-7839.64993765
 10
262.005155382
 20
-7727.43374307
 10
263.666966137
 20
-7615.21754853
 10
265.328778774
 20
-7503.00135403
 10
266.990593443
 20
-7390.78515958
 10
268.652410311
 20
-7278.56896517
 10
270.314229561
 20
-7166.35277082
 10
271.976051399
 20
-7054.13657653
 10
273.637876055
 20
-6941.9203823
 10
275.299703788
 20
-6829.70418814
 10
276.961534888
 20
-6717.48799406
 10
278.623369683
 20
-6605.27180006
 10
280.285208545
 20
-6493.05560615
 10
281.9470519
 20
-6380.83941234
 10
283.608900233
 20
-6268.62321865
 10
285.270754102
 20
-6156.40702508
 10
286.932614152
 20
-6044.19083165
 10
288.594481132
 20
-5931.97463837
 10
290.256355916
 20
-5819.75844527
 10
291.918239534
 20
-5707.54225237
 10
293.580133204
 20
-5595.3260597
 10
295.242038378
 20
-5483.10986728
 10
296.903956804
 20
-5370.89367517
 10
298.5658906
 20
-5258.6774834
 10
300.227842364
 20
-5146.46129203
 10
301.889815311
 20
-5034.24510114
 10
303.551813474
 20
-4922.02891082
 10
305.213841978
 20
-4809.81272119
 10
306.875907438
 20
-4697.59653238
 10
308.538018543
 20
-4585.38034461
  0
LWPOLYLINE
  5
11e
330
1F
100
AcDbEntity
  8
main_beam_width
100
AcDbPolyline
 90
100
 70
0
43
0.0
 10
-49.5501169871
 20
-15692.741781
 10
-46.1562121829
 20
-15580.5434543
 10
-42.7623074658
 20
-15468.3451275
 10
-39.3684028381
 20
-15356.1468008
 10
-35.9744983022
 20
-15243.9484741
 10
-32.5805938608
 20
-15131.7501473
 10
-29.1866895166
 20
-15019.5518206
 10
-25.7927852723
 20
-14907.3534938
 10
-22.3988811308
 20
-14795.1551671
 10
-19.0049770951
 20
-14682.9568403
 10
-15.6110731684
 20
-14570.7585136
 10
-12.2171693538
 20
-14458.5601868
 10
-8.82326565487
 20
-14346.36186
 10
-5.42936207496
 20
-14234.1635333
 10
-2.03545861778
 20
-14121.9652065
 10
1.35844471287
 20
-14009.7668798
 10
4.75234791303
 20
-13897.568553
 10
8.14625097857
 20
-13785.3702262
 10
11.5401539052
 20
-13673.1718994
 10
14.9340566883
 20
-13560.9735726
 10
18.3279593234
 20
-13448.7752459
 10
21.7218618054
 20
-13336.5769191
 10
25.1157641293
 20
-13224.3785923
 10
28.5096662898
 20
-13112.1802655
 10
31.9035682812
 20
-12999.9819387
 10
35.2974700976
 20
-12887.7836119
 10
38.6913717331
 20
-12775.5852851
 10
42.0852731811
 20
-12663.3869583
 10
45.479174435
 20
-12551.1886315
 10
48.8730754876
 20
-12438.9903046
 10
52.2669763317
 20
-12326.7919778
 10
55.6608769595
 20
-12214.593651
 10
59.0547773628
 20
-12102.3953242
 10
62.4486775332
 20
-11990.1969973
 10
65.8425774615
 20
-11877.9986705
 10
69.2364771384
 20
-11765.8003436
 10
72.6303765538
 20
-11653.6020168
 10
76.0242756974
 20
-11541.4036899
 10
79.418174558
 20
-11429.205363
 10
82.8120731239
 20
-11317.0070362
 10
86.2059713829
 20
-11204.8087093
 10
89.599869322
 20
-11092.6103824
 10
92.9937669273
 20
-10980.4120555
 10
96.3876641843
 20
-10868.2137286
 10
99.7815610776
 20
-10756.0154017
 10
103.175457591
 20
-10643.8170747
 10
106.569353707
 20
-10531.6187478
 10
109.963249407
 20
-10419.4204209
 10
113.357144671
 20
-10307.2220939
 10
116.75103948
 20
-10195.023767
 10
120.14493381
 20
-10082.82544
 10
123.538827638
 20
-9970.62711301
 10
126.932720939
 20
-9858.42878601
 10
130.326613686
 20
-9746.23045901
 10
133.72050585
 20
-9634.03213199
 10
137.114397401
 20
-9521.83380495
 10
140.508288304
 20
-9409.6354779
 10
143.902178526
 20
-9297.43715084
 10
147.296068027
 20
-9185.23882376
 10
150.689956767
 20
-9073.04049666
 10
154.083844702
 20
-8960.84216955
 10
157.477731784
 20
-8848.64384241
 10
160.871617961
 20
-8736.44551526
 10
164.265503179
 20
-8624.24718808
 10
167.659387377
 20
-8512.04886088
 10
171.053270488
 20
-8399.85053366
 10
174.447152443
 20
-8287.65220641
 10
177.841033163
 20
-8175.45387913
 10
181.234912564
 20
-8063.25555183
 10
184.628790554
 20
-7951.05722449
 10
188.02266703
 20
-7838.85889711
 10
191.416541882
 20
-7726.6605697
 10
194.810414987
 20
-7614.46224225
 10
198.204286209
 20
-7502.26391476
 10
201.5981554
 20
-7390.06558722
 10
204.992022393
 20
-7277.86725964
 10
208.385887003
 20
-7165.668932
 10
211.779749026
 20
-7053.4706043
 10
215.173608231
 20
-6941.27227654
 10
218.567464361
 20
-6829.0739487
 10
221.961317124
 20
-6716.8756208
 10
225.355166192
 20
-6604.67729281
 10
228.749011192
 20
-6492.47896472
 10
232.142851702
 20
-6380.28063654
 10
235.536687234
 20
-6268.08230824
 10
238.930517231
 20
-6155.88397982
 10
242.324341048
 20
-6043.68565126
 10
245.718157936
 20
-5931.48732255
 10
249.11196702
 20
-5819.28899366
 10
252.505767272
 20
-5707.09066457
 10
255.899557474
 20
-5594.89233525
 10
259.293336172
 20
-5482.69400567
 10
262.687101621
 20
-5370.4956758
 10
266.080851702
 20
-5258.29734558
 10
269.474583817
 20
-5146.09901495
 10
272.868294751
 20
-5033.90068385
 10
276.261980473
 20
-4921.70235218
 10
279.655635856
 20
-4809.50401983
 10
283.049254287
 20
-4697.30568664
 10
286.442827079
 20
-4585.10735243
  0
LWPOLYLINE
  5
11f
330
1F
100
AcDbEntity
  8
main_beam_width
100
AcDbPolyline
 90
100
 70
0
43
0.0
 10
144.018260514
 20
-15694.7835931
 10
145.680039563
 20
-15582.5673979
 10
147.3418187
 20
-15470.3512026
 10
149.003597927
 20
-15358.1350074
 10
150.665377245
 20
-15245.9188121
 10
152.327156658
 20
-15133.7026169
 10
153.988936168
 20
-15021.4864216
 10
155.650715777
 20
-14909.2702264
 10
157.31249549
 20
-14797.0540311
 10
158.974275309
 20
-14684.8378359
 10
160.636055236
 20
-14572.6216407
 10
162.297835276
 20
-14460.4054454
 10
163.959615431
 20
-14348.1892502
 10
165.621395705
 20
-14235.973055
 10
167.283176103
 20
-14123.7568597
 10
168.944956626
 20
-14011.5406645
 10
170.60673728
 20
-13899.3244693
 10
172.268518069
 20
-13787.1082741
 10
173.930298997
 20
-13674.8920789
 10
175.592080068
 20
-13562.6758837
 10
177.253861288
 20
-13450.4596885
 10
178.91564266
 20
-13338.2434933
 10
180.577424191
 20
-13226.0272981
 10
182.239205885
 20
-13113.8111029
 10
183.900987748
 20
-13001.5949077
 10
185.562769786
 20
-12889.3787125
 10
187.224552005
 20
-12777.1625173
 10
188.886334412
 20
-12664.9463221
 10
190.548117013
 20
-12552.7301269
 10
192.209899815
 20
-12440.5139318
 10
193.871682825
 20
-12328.2977366
 10
195.533466052
 20
-12216.0815414
 10
197.195249504
 20
-12103.8653463
 10
198.857033188
 20
-11991.6491511
 10
200.518817115
 20
-11879.432956
 10
202.180601293
 20
-11767.2167608
 10
203.842385733
 20
-11655.0005657
 10
205.504170444
 20
-11542.7843706
 10
207.165955439
 20
-11430.5681755
 10
208.827740728
 20
-11318.3519803
 10
210.489526324
 20
-11206.1357852
 10
212.15131224
 20
-11093.9195901
 10
213.81309849
 20
-10981.703395
 10
215.474885089
 20
-10869.4871999
 10
217.136672051
 20
-10757.2710049
 10
218.798459393
 20
-10645.0548098
 10
220.460247133
 20
-10532.8386147
 10
222.122035288
 20
-10420.6224197
 10
223.783823879
 20
-10308.4062246
 10
225.445612926
 20
-10196.1900296
 10
227.107402452
 20
-10083.9738346
 10
228.76919248
 20
-9971.75763959
 10
230.430983035
 20
-9859.54144459
 10
232.092774144
 20
-9747.32524961
 10
233.754565836
 20
-9635.10905464
 10
235.416358142
 20
-9522.89285968
 10
237.078151095
 20
-9410.67666474
 10
238.73994473
 20
-9298.46046981
 10
240.401739086
 20
-9186.2442749
 10
242.063534202
 20
-9074.02808
 10
243.725330125
 20
-8961.81188513
 10
245.3871269
 20
-8849.59569027
 10
247.048924579
 20
-8737.37949544
 10
248.710723219
 20
-8625.16330062
 10
250.372522879
 20
-8512.94710583
 10
252.034323625
 20
-8400.73091106
 10
253.696125528
 20
-8288.51471632
 10
255.357928666
 20
-8176.29852161
 10
257.019733123
 20
-8064.08232692
 10
258.681538993
 20
-7951.86613227
 10
260.343346375
 20
-7839.64993765
 10
262.005155382
 20
-7727.43374307
 10
263.666966137
 20
-7615.21754853
 10
265.328778774
 20
-7503.00135403
 10
266.990593443
 20
-7390.78515958
 10
268.652410311
 20
-7278.56896517
 10
270.314229561
 20
-7166.35277082
 10
271.976051399
 20
-7054.13657653
 10
273.637876055
 20
-6941.9203823
 10
275.299703788
 20
-6829.70418814
 10
276.961534888
 20
-6717.48799406
 10
278.623369683
 20
-6605.27180006
 10
280.285208545
 20
-6493.05560615
 10
281.9470519
 20
-6380.83941234
 10
283.608900233
 20
-6268.62321865
 10
285.270754102
 20
-6156.40702508
 10
286.932614152
 20
-6044.19083165
 10
288.594481132
 20
-5931.97463837
 10
290.256355916
 20
-5819.75844527
 10
291.918239534
 20
-5707.54225237
 10
293.580133204
 20
-5595.3260597
 10
295.242038378
 20
-5483.10986728
 10
296.903956804
 20
-5370.89367517
 10
298.5658906
 20
-5258.6774834
 10
300.227842364
 20
-5146.46129203
 10
301.889815311
 20
-5034.24510114
 10
303.551813474
 20
-4922.02891082
 10
305.213841978
 20
-4809.81272119
 10
306.875907438
 20
-4697.59653238
 10
308.538018543
 20
-4585.38034461
  0
LWPOLYLINE
  5
120
330
1F
100
AcDbEntity
  8
main_beam_width
100
AcDbPolyline
 90
37
 70
0
43
0.0
 10
-109.557539576
 20
49939.9882542
 10
-105.545213271
 20
131560.824834
 10
-101.590312111
 20
213181.661414
 10
-97.7012165751
 20
294802.497994
 10
-93.887835228
 20
376423.334575
 10
-90.1619114743
 20
458044.171155
 10
-86.5373842072
 20
539665.007735
 10
-83.0308018047
 20
621285.844315
 10
-79.661779355
 20
702906.680895
 10
-76.4534716945
 20
784527.517475
 10
-73.4330062089
 20
866148.354055
 10
-70.6317761851
 20
947769.190635
 10
-68.0854380622
 20
1029390.02722
 10
-65.8333940372
 20
1111010.8638
 10
-63.9175032942
 20
1192631.70038
 10
-62.3798029846
 20
1274252.53696
 10
-61.2591987095
 20
1355873.37354
 10
-60.5874327536
 20
1437494.21012
 10
-60.3850733331
 20
1519115.0467
 10
-60.6585591674
 20
1600735.88328
 10
-61.399215707
 20
1682356.71986
 10
-62.5845739512
 20
1763977.55644
 10
-64.1815510711
 20
1845598.39302
 10
-66.1505266327
 20
1927219.2296
 10
-68.4493030632
 20
2008840.06618
 10
-71.0362701201
 20
2090460.90276
 10
-73.8725266256
 20
2172081.73934
 10
-76.9230374801
 20
2253702.57592
 10
-80.1570579548
 20
2335323.4125
 10
-83.5480795773
 20
2416944.24908
 10
-87.0735074345
 20
2498565.08566
 10
-90.7142162511
 20
2580185.92224
 10
-94.4540770023
 20
2661806.75882
 10
-98.2795049524
 20
2743427.5954
 10
-102.179053314
 20
2825048.43198
 10
-106.143060799
 20
2906669.26856
 10
-110.163352656
 20
2988290.10514
  0
LWPOLYLINE
  5
121
330
1F
100
AcDbEntity
  8
main_beam_width
100
AcDbPolyline
 90
37
 70
0
43
0.0
 10
76.7633668282
 20
49939.9882542
 10
72.7510405459
 20
131560.824834
 10
68.7961394095
 20
213181.661414
 10
64.9070438966
 20
294802.497994
 10
61.0936625727
 20
376423.334575
 10
57.3677388422
 20
458044.171155
 10
53.7432115983
 20
539665.007735
 10
50.2366292191
 20
621285.844315
 10
46.8676067926
 20
702906.680895
 10
43.6592991552
 20
784527.517475
 10
40.6388336928
 20
866148.354055
 10
37.8376036923
 20
947769.190635
 10
35.2912655925
 20
1029390.02722
 10
33.0392215908
 20
1111010.8638
 10
31.123330871
 20
1192631.70038
 10
29.5856305846
 20
1274252.53696
 10
28.4650263326
 20
1355873.37354
 10
27.7932604
 20
1437494.21012
 10
27.5909010027
 20
1519115.0467
 10
27.8643868602
 20
1600735.88328
 10
28.6050434231
 20
1682356.71986
 10
29.7904016904
 20
1763977.55644
 10
31.3873788335
 20
1845598.39302
 10
33.3563544183
 20
1927219.2296
 10
35.655130872
 20
2008840.06618
 10
38.2420979521
 20
2090460.90276
 10
41.0783544809
 20
2172081.73934
 10
44.1288653586
 20
2253702.57592
 10
47.3628858565
 20
2335323.4125
 10
50.7539075022
 20
2416944.24908
 10
54.2793353826
 20
2498565.08566
 10
57.9200442224
 20
2580185.92224
 10
61.6599049968
 20
2661806.75882
 10
65.4853329701
 20
2743427.5954
 10
69.3848813549
 20
2825048.43198
 10
73.348888863
 20
2906669.26856
 10
77.3691807429
 20
2988290.10514
  0
LWPOLYLINE
  5
122
330
1F
100
AcDbEntity
  8
main_beam_width
100
AcDbPolyline
 90
10
 70
0
43
0.0
 10
76.7669976685
 20
49839.9206665
 10
78.8760188028
 20
44312.7865412
 10
80.9852680969
 20
38785.6524161
 10
83.094743434
 20
33258.518291
 10
85.2044427213
 20
27731.3841659
 10
87.3143638905
 20
22204.250041
 10
89.424504897
 20
16677.1159161
 10
91.5348637199
 20
11149.9817913
 10
93.6454383612
 20
5622.84766661
 10
95.756226846
 20
95.7135419527
  0
LWPOLYLINE
  5
123
330
1F
100
AcDbEntity
  8
main_beam_width
100
AcDbPolyline
 90
10
 70
0
43
0.0
 10
-109.561160029
 20
49840.0569908
 10
-108.027503016
 20
44291.636919
 10
-106.494075914
 20
38743.2168472
 10
-104.960876584
 20
33194.7967753
 10
-103.427902908
 20
27646.3767034
 10
-101.895152795
 20
22097.9566313
 10
-100.362624176
 20
16549.5365592
 10
-98.8303150075
 20
11001.116487
 10
-97.2982232692
 20
5452.69641477
 10
-95.7663469638
 20
-95.7236575592
  0
LWPOLYLINE
  5
124
330
1F
100
AcDbEntity
  8
main_beam_width
100
AcDbPolyline
 90
100
 70
0
43
0.0
 10
-4700.50946792
 20
257.239269302
 10
-4812.24676887
 20
253.788471668
 10
-4923.98406886
 20
250.337632336
 10
-5035.72136806
 20
246.886759017
 10
-5147.45866661
 20
243.435857631
 10
-5259.19596462
 20
239.9849328
 10
-5370.93326217
 20
236.533988183
 10
-5482.67055932
 20
233.083026715
 10
-5594.40785615
 20
229.63205078
 10
-5706.14515268
 20
226.181062329
 10
-5817.88244896
 20
222.730062982
 10
-5929.61974502
 20
219.279054086
 10
-6041.35704088
 20
215.828036779
 10
-6153.09433657
 20
212.377012022
 10
-6264.83163211
 20
208.925980636
 10
-6376.56892751
 20
205.474943327
 10
-6488.30622278
 20
202.023900703
 10
-6600.04351795
 20
198.572853291
 10
-6711.78081301
 20
195.121801552
 10
-6823.51810799
 20
191.670745887
 10
-6935.25540288
 20
188.219686653
 10
-7046.9926977
 20
184.768624162
 10
-7158.72999244
 20
181.31755869
 10
-7270.46728713
 20
177.866490486
 10
-7382.20458175
 20
174.41541977
 10
-7493.94187632
 20
170.964346738
 10
-7605.67917085
 20
167.513271568
 10
-7717.41646532
 20
164.062194419
 10
-7829.15375976
 20
160.611115436
 10
-7940.89105415
 20
157.160034748
 10
-8052.62834851
 20
153.708952474
 10
-8164.36564283
 20
150.257868722
 10
-8276.10293712
 20
146.80678359
 10
-8387.84023139
 20
143.355697167
 10
-8499.57752562
 20
139.904609535
 10
-8611.31481983
 20
136.45352077
 10
-8723.05211401
 20
133.00243094
 10
-8834.78940817
 20
129.55134011
 10
-8946.52670231
 20
126.100248337
 10
-9058.26399642
 20
122.649155677
 10
-9170.00129052
 20
119.198062178
 10
-9281.7385846
 20
115.746967888
 10
-9393.47587866
 20
112.295872849
 10
-9505.21317271
 20
108.844777102
 10
-9616.95046674
 20
105.393680683
 10
-9728.68776075
 20
101.942583627
 10
-9840.42505475
 20
98.4914859664
 10
-9952.16234874
 20
95.0403877315
 10
-10063.8996427
 20
91.5892889502
 10
-10175.6369367
 20
88.1381896489
 10
-10287.3742306
 20
84.6870898523
 10
-10399.1115246
 20
81.2359895835
 10
-10510.8488185
 20
77.7848888643
 10
-10622.5861124
 20
74.333787715
 10
-10734.3234063
 20
70.8826861549
 10
-10846.0607002
 20
67.431584202
 10
-10957.7979941
 20
63.9804818733
 10
-11069.535288
 20
60.5293791849
 10
-11181.2725819
 20
57.078276152
 10
-11293.0098758
 20
53.6271727888
 10
-11404.7471696
 20
50.1760691089
 10
-11516.4844635
 20
46.7249651252
 10
-11628.2217573
 20
43.2738608496
 10
-11739.9590512
 20
39.8227562937
 10
-11851.696345
 20
36.3716514684
 10
-11963.4336388
 20
32.9205463841
 10
-12075.1709326
 20
29.4694410505
 10
-12186.9082265
 20
26.0183354769
 10
-12298.6455203
 20
22.5672296723
 10
-12410.3828141
 20
19.116123645
 10
-12522.1201079
 20
15.6650174031
 10
-12633.8574017
 20
12.2139109543
 10
-12745.5946955
 20
8.7628043057
 10
-12857.3319893
 20
5.31169746441
 10
-12969.069283
 20
1.86059043701
 10
-13080.8065768
 20
-1.59051677017
 10
-13192.5438706
 20
-5.04162415108
 10
-13304.2811644
 20
-8.49273169995
 10
-13416.0184581
 20
-11.9438394113
 10
-13527.7557519
 20
-15.3949472797
 10
-13639.4930457
 20
-18.8460553002
 10
-13751.2303394
 20
-22.297163468
 10
-13862.9676332
 20
-25.7482717784
 10
-13974.7049269
 20
-29.199380227
 10
-14086.4422207
 20
-32.6504888094
 10
-14198.1795144
 20
-36.1015975217
 10
-14309.9168082
 20
-39.5527063598
 10
-14421.6541019
 20
-43.0038153201
 10
-14533.3913956
 20
-46.4549243988
 10
-14645.1286894
 20
-49.9060335926
 10
-14756.8659831
 20
-53.357142898
 10
-14868.6032768
 20
-56.8082523119
 10
-14980.3405706
 20
-60.2593618312
 10
-15092.0778643
 20
-63.7104714528
 10
-15203.815158
 20
-67.161581174
 10
-15315.5524517
 20
-70.612690992
 10
-15427.2897454
 20
-74.063800904
 10
-15539.0270392
 20
-77.5149109076
 10
-15650.7643329
 20
-80.9660210003
 10
-15762.5016266
 20
-84.4171311797
  0
LWPOLYLINE
  5
125
330
1F
100
AcDbEntity
  8
main_beam_width
100
AcDbPolyline
 90
100
 70
0
43
0.0
 10
-4700.80553986
 20
280.002413576
 10
-4812.56169972
 20
278.273197263
 10
-4924.31786054
 20
276.544022653
 10
-5036.07402215
 20
274.814882034
 10
-5147.83018442
 20
273.085769484
 10
-5259.58634722
 20
271.356680382
 10
-5371.34251048
 20
269.627611069
 10
-5483.09867414
 20
267.898558608
 10
-5594.85483813
 20
266.169520617
 10
-5706.61100241
 20
264.440495142
 10
-5818.36716694
 20
262.711480567
 10
-5930.12333169
 20
260.98247554
 10
-6041.87949664
 20
259.253478926
 10
-6153.63566176
 20
257.524489763
 10
-6265.39182704
 20
255.795507229
 10
-6377.14799245
 20
254.06653062
 10
-6488.90415798
 20
252.337559327
 10
-6600.66032363
 20
250.608592822
 10
-6712.41648938
 20
248.879630645
 10
-6824.17265522
 20
247.150672394
 10
-6935.92882114
 20
245.421717713
 10
-7047.68498713
 20
243.69276629
 10
-7159.4411532
 20
241.963817847
 10
-7271.19731932
 20
240.234872137
 10
-7382.95348551
 20
238.50592894
 10
-7494.70965175
 20
236.776988059
 10
-7606.46581804
 20
235.048049317
 10
-7718.22198438
 20
233.319112553
 10
-7829.97815075
 20
231.590177625
 10
-7941.73431717
 20
229.861244401
 10
-8053.49048363
 20
228.132312763
 10
-8165.24665012
 20
226.403382603
 10
-8277.00281664
 20
224.674453825
 10
-8388.75898319
 20
222.945526337
 10
-8500.51514977
 20
221.216600058
 10
-8612.27131637
 20
219.487674913
 10
-8724.027483
 20
217.758750832
 10
-8835.78364965
 20
216.029827752
 10
-8947.53981633
 20
214.300905615
 10
-9059.29598302
 20
212.571984366
 10
-9171.05214974
 20
210.843063955
 10
-9282.80831647
 20
209.114144335
 10
-9394.56448322
 20
207.385225465
 10
-9506.32064999
 20
205.656307303
 10
-9618.07681677
 20
203.927389812
 10
-9729.83298357
 20
202.198472959
 10
-9841.58915038
 20
200.46955671
 10
-9953.3453172
 20
198.740641036
 10
-10065.101484
 20
197.011725909
 10
-10176.8576509
 20
195.282811301
 10
-10288.6138177
 20
193.553897189
 10
-10400.3699846
 20
191.82498355
 10
-10512.1261515
 20
190.09607036
 10
-10623.8823184
 20
188.367157601
 10
-10735.6384853
 20
186.638245253
 10
-10847.3946522
 20
184.909333297
 10
-10959.1508191
 20
183.180421718
 10
-11070.9069861
 20
181.451510498
 10
-11182.663153
 20
179.722599623
 10
-11294.4193199
 20
177.993689078
 10
-11406.1754869
 20
176.26477885
 10
-11517.9316538
 20
174.535868926
 10
-11629.6878208
 20
172.806959293
 10
-11741.4439878
 20
171.078049941
 10
-11853.2001548
 20
169.349140859
 10
-11964.9563217
 20
167.620232035
 10
-12076.7124887
 20
165.891323461
 10
-12188.4686557
 20
164.162415127
 10
-12300.2248227
 20
162.433507024
 10
-12411.9809897
 20
160.704599144
 10
-12523.7371567
 20
158.975691478
 10
-12635.4933237
 20
157.24678402
 10
-12747.2494908
 20
155.517876761
 10
-12859.0056578
 20
153.788969694
 10
-12970.7618248
 20
152.060062814
 10
-13082.5179919
 20
150.331156114
 10
-13194.2741589
 20
148.602249588
 10
-13306.0303259
 20
146.873343229
 10
-13417.786493
 20
145.144437033
 10
-13529.54266
 20
143.415530994
 10
-13641.2988271
 20
141.686625108
 10
-13753.0549941
 20
139.957719368
 10
-13864.8111612
 20
138.228813771
 10
-13976.5673282
 20
136.499908313
 10
-14088.3234953
 20
134.771002988
 10
-14200.0796624
 20
133.042097793
 10
-14311.8358294
 20
131.313192724
 10
-14423.5919965
 20
129.584287777
 10
-14535.3481636
 20
127.855382949
 10
-14647.1043307
 20
126.126478236
 10
-14758.8604978
 20
124.397573634
 10
-14870.6166648
 20
122.668669141
 10
-14982.3728319
 20
120.939764753
 10
-15094.128999
 20
119.210860468
 10
-15205.8851661
 20
117.481956282
 10
-15317.6413332
 20
115.753052193
 10
-15429.3975003
 20
114.024148198
 10
-15541.1536674
 20
112.295244295
 10
-15652.9098345
 20
110.566340481
 10
-15764.6660016
 20
108.837436753
  0
LWPOLYLINE
  5
126
330
1F
100
AcDbEntity
  8
main_beam_width
100
AcDbPolyline
 90
10
 70
0
43
0.0
 10
-19562.3782706
 20
234.066814695
 10
-19551.2394803
 20
234.099770627
 10
-19540.1006899
 20
234.132727368
 10
-19528.9618996
 20
234.165684916
 10
-19517.8231093
 20
234.198643272
 10
-19506.684319
 20
234.231602436
 10
-19495.5455287
 20
234.264562405
 10
-19484.4067384
 20
234.297523182
 10
-19473.2679481
 20
234.330484763
 10
-19462.1291577
 20
234.363447151
  0
LWPOLYLINE
  5
127
330
1F
100
AcDbEntity
  8
main_beam_width
100
AcDbPolyline
 90
10
 70
0
43
0.0
 10
-19561.8017169
 20
218.799243932
 10
-19550.7221644
 20
218.829367912
 10
-19539.6426119
 20
218.859491093
 10
-19528.5630593
 20
218.889613475
 10
-19517.4835068
 20
218.919735058
 10
-19506.4039542
 20
218.949855842
 10
-19495.3244017
 20
218.979975828
 10
-19484.2448492
 20
219.010095016
 10
-19473.1652966
 20
219.040213407
 10
-19462.0857441
 20
219.070331001
  0
LWPOLYLINE
  5
128
330
1F
100
AcDbEntity
  8
main_beam_width
100
AcDbPolyline
 90
10
 70
0
43
0.0
 10
308.538598114
 20
-4585.38034962
 10
304.44885291
 20
-6223.27885061
 10
300.373112997
 20
-7861.1773822
 10
296.313562208
 20
-9499.07594917
 10
292.272766692
 20
-11136.9745571
 10
288.253728678
 20
-12774.8732126
 10
284.259934083
 20
-14412.7719232
 10
280.295382644
 20
-16050.6706978
 10
276.364583375
 20
-17688.5695461
 10
272.472492039
 20
-19326.468479
  0
LWPOLYLINE
  5
129
330
1F
100
AcDbEntity
  8
main_beam_width
100
AcDbPolyline
 90
10
 70
0
43
0.0
 10
286.443078578
 20
-4585.10735646
 10
283.374941506
 20
-6223.03305784
 10
280.292798959
 20
-7860.95872862
 10
277.194467046
 20
-9498.88436402
 10
274.077379542
 20
-11136.8099584
 10
270.938534117
 20
-12774.7355053
 10
267.77444473
 20
-14412.660997
 10
264.58111149
 20
-16050.5864249
 10
261.354025194
 20
-17688.5117789
 10
258.088229862
 20
-19326.4370484
  0
LWPOLYLINE
  5
12a
330
1F
100
AcDbEntity
  8
main_beam_width
100
AcDbPolyline
 90
37
 70
0
43
0.0
 10
53225.1253638
 20
85.2464119917
 10
134845.961944
 20
81.2281826432
 10
216466.798524
 20
77.2680528925
 10
298087.635104
 20
73.3745501379
 10
379708.471684
 20
69.5577647244
 10
461329.308264
 20
65.829664858
 10
542950.144844
 20
62.2044667295
 10
624570.981424
 20
58.6990589043
 10
706191.818004
 20
55.3334698189
 10
787812.654585
 20
52.1313488168
 10
869433.491165
 20
49.1204007879
 10
951054.327745
 20
46.3326689437
 10
1032675.16432
 20
43.8045002789
 10
1114296.0009
 20
41.575965086
 10
1195916.83748
 20
39.6894665596
 10
1277537.67407
 20
38.1873252019
 10
1359158.51065
 20
37.1083219164
 10
1440779.34723
 20
36.4835564679
 10
1522400.18381
 20
36.3324237548
 10
1604021.02039
 20
36.6597787778
 10
1685641.85697
 20
37.4551872023
 10
1767262.69355
 20
38.6945163122
 10
1848883.53013
 20
40.3433340587
 10
1930504.36671
 20
42.3610940782
 10
2012125.20329
 20
44.7050949643
 10
2093746.03987
 20
47.3335711414
 10
2175366.87645
 20
50.2077136368
 10
2256987.71303
 20
53.2927312276
 10
2338608.54961
 20
56.5581993938
 10
2420229.38619
 20
59.9779542817
 10
2501850.22277
 20
63.5297380422
 10
2583471.05935
 20
67.1947375532
 10
2665091.89593
 20
70.95710332
 10
2746712.73251
 20
74.8034956456
 10
2828333.56909
 20
78.7226796593
 10
2909954.40567
 20
82.7051758186
 10
2991575.24225
 20
86.742964491
  0
LWPOLYLINE
  5
12b
330
1F
100
AcDbEntity
  8
main_beam_width
100
AcDbPolyline
 90
37
 70
0
43
0.0
 10
53225.1253638
 20
-100.394801877
 10
134845.961944
 20
-96.3765725284
 10
216466.798524
 20
-92.4164427774
 10
298087.635104
 20
-88.5229400225
 10
379708.471684
 20
-84.7061546087
 10
461329.308264
 20
-80.978054742
 10
542950.144844
 20
-77.3528566132
 10
624570.981424
 20
-73.8474487877
 10
706191.818004
 20
-70.481859702
 10
787812.654585
 20
-67.2797386996
 10
869433.491165
 20
-64.2687906704
 10
951054.327745
 20
-61.481058826
 10
1032675.16432
 20
-58.9528901608
 10
1114296.0009
 20
-56.7243549677
 10
1195916.83748
 20
-54.837856441
 10
1277537.67407
 20
-53.335715083
 10
1359158.51065
 20
-52.2567117972
 10
1440779.34723
 20
-51.6319463485
 10
1522400.18381
 20
-51.480813635
 10
1604021.02039
 20
-51.8081686578
 10
1685641.85697
 20
-52.6035770819
 10
1767262.69355
 20
-53.8429061916
 10
1848883.53013
 20
-55.4917239378
 10
1930504.36671
 20
-57.509483957
 10
2012125.20329
 20
-59.8534848428
 10
2093746.03987
 20
-62.4819610196
 10
2175366.87645
 20
-65.3561035147
 10
2256987.71303
 20
-68.4411211053
 10
2338608.54961
 20
-71.7065892712
 10
2420229.38619
 20
-75.1263441587
 10
2501850.22277
 20
-78.6781279189
 10
2583471.05935
 20
-82.3431274297
 10
2665091.89593
 20
-86.1054931962
 10
2746712.73251
 20
-89.9518855215
 10
2828333.56909
 20
-93.8710695349
 10
2909954.40567
 20
-97.8535656939
 10
2991575.24225
 20
-101.891354366
  0
LWPOLYLINE
  5
12c
330
1F
100
AcDbEntity
  8
main_beam_width
100
AcDbPolyline
 90
10
 70
0
43
0.0
 10
272.472492039
 20
-19326.468479
 10
272.44696991
 20
-19337.5498054
 10
272.421448739
 20
-19348.6311318
 10
272.395928526
 20
-19359.7124583
 10
272.370409272
 20
-19370.7937847
 10
272.344890977
 20
-19381.8751111
 10
272.319373643
 20
-19392.9564376
 10
272.293857269
 20
-19404.037764
 10
272.268341856
 20
-19415.1190904
 10
272.242827405
 20
-19426.2004169
  0
LWPOLYLINE
  5
12d
330
1F
100
AcDbEntity
  8
main_beam_width
100
AcDbPolyline
 90
10
 70
0
43
0.0
 10
258.088229862
 20
-19326.4370484
 10
258.065209947
 20
-19337.5741014
 10
258.042189064
 20
-19348.7111543
 10
258.019167213
 20
-19359.8482073
 10
257.996144393
 20
-19370.9852603
 10
257.973120604
 20
-19382.1223132
 10
257.950095845
 20
-19393.2593662
 10
257.927070116
 20
-19404.3964191
 10
257.904043416
 20
-19415.5334721
 10
257.881015745
 20
-19426.670525
  0
LWPOLYLINE
  5
12e
330
1F
100
AcDbEntity
  8
main_beam_width
100
AcDbPolyline
 90
10
 70
0
43
0.0
 10
272.472492039
 20
-19326.468479
 10
272.44696991
 20
-19337.5498054
 10
272.421448739
 20
-19348.6311318
 10
272.395928526
 20
-19359.7124583
 10
272.370409272
 20
-19370.7937847
 10
272.344890977
 20
-19381.8751111
 10
272.319373643
 20
-19392.9564376
 10
272.293857269
 20
-19404.037764
 10
272.268341856
 20
-19415.1190904
 10
272.242827405
 20
-19426.2004169
  0
LWPOLYLINE
  5
12f
330
1F
100
AcDbEntity
  8
main_beam_width
100
AcDbPolyline
 90
10
 70
0
43
0.0
 10
258.088229862
 20
-19326.4370484
 10
258.065209947
 20
-19337.5741014
 10
258.042189064
 20
-19348.7111543
 10
258.019167213
 20
-19359.8482073
 10
257.996144393
 20
-19370.9852603
 10
257.973120604
 20
-19382.1223132
 10
257.950095845
 20
-19393.2593662
 10
257.927070116
 20
-19404.3964191
 10
257.904043416
 20
-19415.5334721
 10
257.881015745
 20
-19426.670525
  0
LWPOLYLINE
  5
130
330
1F
100
AcDbEntity
  8
main_beam_width
100
AcDbPolyline
 90
10
 70
0
43
0.0
 10
-109.561162752
 20
49840.0569908
 10
-109.560760175
 20
49851.1604645
 10
-109.560357599
 20
49862.2639382
 10
-109.559955023
 20
49873.3674119
 10
-109.559552447
 20
49884.4708856
 10
-109.559149872
 20
49895.5743593
 10
-109.558747297
 20
49906.677833
 10
-109.558344723
 20
49917.7813067
 10
-109.55794215
 20
49928.8847805
 10
-109.557539576
 20
49939.9882542
  0
LWPOLYLINE
  5
131
330
1F
100
AcDbEntity
  8
main_beam_width
100
AcDbPolyline
 90
10
 70
0
43
0.0
 10
76.7669949462
 20
49839.9206665
 10
76.7665918202
 20
49851.0392873
 10
76.7661886947
 20
49862.1579082
 10
76.7657855696
 20
49873.276529
 10
76.7653824449
 20
49884.3951499
 10
76.7649793207
 20
49895.5137707
 10
76.7645761969
 20
49906.6323916
 10
76.7641730736
 20
49917.7510125
 10
76.7637699507
 20
49928.8696333
 10
76.7633668282
 20
49939.9882542
  0
LWPOLYLINE
  5
132
330
1F
100
AcDbEntity
  8
main_beam_width
100
AcDbPolyline
 90
10
 70
0
43
0.0
 10
53225.1253638
 20
-100.394801877
 10
53214.006771
 20
-100.39455003
 10
53202.8881783
 20
-100.394298183
 10
53191.7695855
 20
-100.394046336
 10
53180.6509928
 20
-100.39379449
 10
53169.5324
 20
-100.393542644
 10
53158.4138073
 20
-100.393290799
 10
53147.2952145
 20
-100.393038954
 10
53136.1766218
 20
-100.39278711
 10
53125.058029
 20
-100.392535266
  0
LWPOLYLINE
  5
133
330
1F
100
AcDbEntity
  8
main_beam_width
100
AcDbPolyline
 90
10
 70
0
43
0.0
 10
53225.1253638
 20
85.2464119917
 10
53214.021862
 20
85.2461604861
 10
53202.9183601
 20
85.2459089808
 10
53191.8148583
 20
85.2456574761
 10
53180.7113565
 20
85.2454059717
 10
53169.6078547
 20
85.2451544679
 10
53158.5043529
 20
85.2449029644
 10
53147.4008511
 20
85.2446514615
 10
53136.2973492
 20
85.2443999589
 10
53125.1938474
 20
85.2441484568
  0
LWPOLYLINE
  5
134
330
1F
100
AcDbEntity
  8
main_beam_width
100
AcDbPolyline
 90
10
 70
0
43
0.0
 10
308.538598114
 20
-4585.38034962
 10
304.44885291
 20
-6223.27885061
 10
300.373112997
 20
-7861.1773822
 10
296.313562208
 20
-9499.07594917
 10
292.272766692
 20
-11136.9745571
 10
288.253728678
 20
-12774.8732126
 10
284.259934083
 20
-14412.7719232
 10
280.295382644
 20
-16050.6706978
 10
276.364583375
 20
-17688.5695461
 10
272.472492039
 20
-19326.468479
  0
LWPOLYLINE
  5
135
330
1F
100
AcDbEntity
  8
main_beam_width
100
AcDbPolyline
 90
10
 70
0
43
0.0
 10
286.443078578
 20
-4585.10735646
 10
283.374941506
 20
-6223.03305784
 10
280.292798959
 20
-7860.95872862
 10
277.194467046
 20
-9498.88436402
 10
274.077379542
 20
-11136.8099584
 10
270.938534117
 20
-12774.7355053
 10
267.77444473
 20
-14412.660997
 10
264.58111149
 20
-16050.5864249
 10
261.354025194
 20
-17688.5117789
 10
258.088229862
 20
-19326.4370484
  0
LWPOLYLINE
  5
136
330
1F
100
AcDbEntity
  8
main_beam_width
100
AcDbPolyline
 90
10
 70
0
43
0.0
 10
53125.1938517
 20
85.2500396368
 10
53136.2973531
 20
85.2496365633
 10
53147.4008544
 20
85.2492334903
 10
53158.5043558
 20
85.2488304178
 10
53169.6078571
 20
85.2484273456
 10
53180.7113584
 20
85.248024274
 10
53191.8148598
 20
85.2476212027
 10
53202.9183611
 20
85.2472181319
 10
53214.0218624
 20
85.2468150616
 10
53225.1253638
 20
85.2464119917
  0
LWPOLYLINE
  5
137
330
1F
100
AcDbEntity
  8
main_beam_width
100
AcDbPolyline
 90
10
 70
0
43
0.0
 10
53125.0580247
 20
-100.398434453
 10
53136.1766179
 20
-100.398030832
 10
53147.2952112
 20
-100.397627211
 10
53158.4138044
 20
-100.39722359
 10
53169.5323976
 20
-100.39681997
 10
53180.6509909
 20
-100.396416351
 10
53191.7695841
 20
-100.396012732
 10
53202.8881773
 20
-100.395609113
 10
53214.0067705
 20
-100.395205495
 10
53225.1253638
 20
-100.394801877
  0
LWPOLYLINE
  5
138
330
1F
100
AcDbEntity
  8
main_beam_width
100
AcDbPolyline
 90
10
 70
0
43
0.0
 10
95.7597071517
 20
95.7170207069
 10
98.5381452645
 20
85.9063481492
 10
101.316583378
 20
76.0956755915
 10
104.095021491
 20
66.2850030339
 10
106.873459604
 20
56.4743304764
 10
109.651897718
 20
46.6636579188
 10
112.430335832
 20
36.8529853614
 10
115.208773945
 20
27.042312804
 10
117.98721206
 20
17.2316402466
 10
120.765650174
 20
7.42096768928
  0
LWPOLYLINE
  5
139
330
1F
100
AcDbEntity
  8
main_beam_width
100
AcDbPolyline
 90
10
 70
0
43
0.0
 10
-95.7628661179
 20
-95.720178265
 10
-92.9980152657
 20
-105.485077616
 10
-90.2331644137
 20
-115.249976967
 10
-87.4683135618
 20
-125.014876318
 10
-84.7034627102
 20
-134.779775669
 10
-81.9386118587
 20
-144.54467502
 10
-79.1737610074
 20
-154.309574371
 10
-76.4089101562
 20
-164.074473723
 10
-73.6440593053
 20
-173.839373074
 10
-70.8792084545
 20
-183.604272425
  0
LWPOLYLINE
  5
13a
330
1F
100
AcDbEntity
  8
main_beam_width
100
AcDbPolyline
 90
10
 70
0
43
0.0
 10
-21562.2006064
 20
259.484897237
 10
-21339.9981624
 20
256.657716801
 10
-21117.7957086
 20
253.83129664
 10
-20895.5932451
 20
251.005626519
 10
-20673.3907722
 20
248.180696156
 10
-20451.1882898
 20
245.356495243
 10
-20228.9857982
 20
242.533013449
 10
-20006.7832975
 20
239.710240437
 10
-19784.5807878
 20
236.888165867
 10
-19562.3782693
 20
234.066779411
  0
LWPOLYLINE
  5
13b
330
1F
100
AcDbEntity
  8
main_beam_width
100
AcDbPolyline
 90
10
 70
0
43
0.0
 10
-21561.6481612
 20
244.855738557
 10
-21339.4429627
 20
241.963513645
 10
-21117.237774
 20
239.070528467
 10
-20895.0325949
 20
236.17679326
 10
-20672.8274253
 20
233.282318305
 10
-20450.6222651
 20
230.387113912
 10
-20228.4171142
 20
227.491190412
 10
-20006.2119724
 20
224.594558143
 10
-19784.0068396
 20
221.697227445
 10
-19561.8017156
 20
218.799208645
  0
LWPOLYLINE
  5
13c
330
1F
100
AcDbEntity
  8
main_beam_width
100
AcDbPolyline
 90
10
 70
0
43
0.0
 10
95.7597071518
 20
95.717020707
 10
98.5381452646
 20
85.9063481493
 10
101.316583378
 20
76.0956755916
 10
104.095021491
 20
66.285003034
 10
106.873459604
 20
56.4743304765
 10
109.651897718
 20
46.6636579189
 10
112.430335832
 20
36.8529853615
 10
115.208773946
 20
27.0423128041
 10
117.98721206
 20
17.2316402467
 10
120.765650174
 20
7.42096768938
  0
LWPOLYLINE
  5
13d
330
1F
100
AcDbEntity
  8
main_beam_width
100
AcDbPolyline
 90
10
 70
0
43
0.0
 10
-95.7628661178
 20
-95.7201782649
 10
-92.9980152656
 20
-105.485077616
 10
-90.2331644136
 20
-115.249976967
 10
-87.4683135617
 20
-125.014876318
 10
-84.7034627101
 20
-134.779775669
 10
-81.9386118586
 20
-144.54467502
 10
-79.1737610073
 20
-154.309574371
 10
-76.4089101561
 20
-164.074473723
 10
-73.6440593051
 20
-173.839373074
 10
-70.8792084544
 20
-183.604272425
  0
LWPOLYLINE
  5
13e
330
1F
100
AcDbEntity
  8
main_beam_width
100
AcDbPolyline
 90
10
 70
0
43
0.0
 10
-7.75274846904
 20
-120.681910393
 10
-17.5316504298
 20
-117.9083846
 10
-27.3105523906
 20
-115.134858807
 10
-37.0894543515
 20
-112.361333015
 10
-46.8683563124
 20
-109.587807223
 10
-56.6472582734
 20
-106.814281431
 10
-66.4261602344
 20
-104.040755639
 10
-76.2050621955
 20
-101.267229848
 10
-85.9839641566
 20
-98.4937040562
 10
-95.7628661178
 20
-95.7201782649
  0
LWPOLYLINE
  5
13f
330
1F
100
AcDbEntity
  8
main_beam_width
100
AcDbPolyline
 90
10
 70
0
43
0.0
 10
184.182352738
 20
70.6326338998
 10
174.357614339
 20
73.4197879888
 10
164.532875941
 20
76.2069420779
 10
154.708137542
 20
78.9940961673
 10
144.883399144
 20
81.7812502568
 10
135.058660745
 20
84.5684043465
 10
125.233922347
 20
87.3555584364
 10
115.409183948
 20
90.1427125264
 10
105.58444555
 20
92.9298666166
 10
95.7597071518
 20
95.717020707
  0
LWPOLYLINE
  5
140
330
1F
100
AcDbEntity
  8
main_beam_width
100
AcDbPolyline
 90
10
 70
0
43
0.0
 10
120.762196262
 20
7.41752494465
 10
123.346780554
 20
-1737.27149269
 10
125.931385789
 20
-3481.9605103
 10
128.516011907
 20
-5226.64952788
 10
131.100658847
 20
-6971.33854543
 10
133.685326551
 20
-8716.02756295
 10
136.270014958
 20
-10460.7165804
 10
138.854724009
 20
-12205.4055979
 10
141.439453645
 20
-13950.0946153
 10
144.024203808
 20
-15694.7836327
  0
LWPOLYLINE
  5
141
330
1F
100
AcDbEntity
  8
main_beam_width
100
AcDbPolyline
 90
10
 70
0
43
0.0
 10
-70.8826628991
 20
-183.607715701
 10
-68.5119586144
 20
-1906.84483886
 10
-66.1412747551
 20
-3630.08196206
 10
-63.7706112632
 20
-5353.31908528
 10
-61.399968081
 20
-7076.55620853
 10
-59.0293451509
 20
-8799.79333181
 10
-56.6587424155
 20
-10523.0304551
 10
-54.2881598176
 20
-12246.2675785
 10
-51.9175973004
 20
-13969.5047018
 10
-49.5470548069
 20
-15692.7418252
  0
LWPOLYLINE
  5
142
330
1F
100
AcDbEntity
  8
main_beam_width
100
AcDbPolyline
 90
10
 70
0
43
0.0
 10
-95.7663469637
 20
-95.7236575591
 10
-97.2982232691
 20
5452.69641477
 10
-98.8303150074
 20
11001.116487
 10
-100.362624176
 20
16549.5365592
 10
-101.895152795
 20
22097.9566313
 10
-103.427902908
 20
27646.3767034
 10
-104.960876584
 20
33194.7967753
 10
-106.494075914
 20
38743.2168472
 10
-108.027503016
 20
44291.636919
 10
-109.561160029
 20
49840.0569908
  0
LWPOLYLINE
  5
143
330
1F
100
AcDbEntity
  8
main_beam_width
100
AcDbPolyline
 90
10
 70
0
43
0.0
 10
95.7562268461
 20
95.7135419528
 10
93.6454383612
 20
5622.84766661
 10
91.5348637199
 20
11149.9817913
 10
89.4245048971
 20
16677.1159161
 10
87.3143638906
 20
22204.250041
 10
85.2044427213
 20
27731.3841659
 10
83.094743434
 20
33258.518291
 10
80.985268097
 20
38785.6524161
 10
78.8760188028
 20
44312.7865412
 10
76.7669976685
 20
49839.9206665
  0
LWPOLYLINE
  5
144
330
1F
100
AcDbEntity
  8
main_beam_width
100
AcDbPolyline
 90
10
 70
0
43
0.0
 10
-15764.6660449
 20
108.843357549
 10
-14002.3969037
 20
107.384404397
 10
-12240.1277624
 20
105.92547229
 10
-10477.8586212
 20
104.466561288
 10
-8715.58947986
 20
103.007671454
 10
-6953.32033856
 20
101.548802848
 10
-5191.05119723
 20
100.089955533
 10
-3428.78205589
 20
98.6311295702
 10
-1666.51291453
 20
97.1723250227
 10
95.7562268461
 20
95.7135419528
  0
LWPOLYLINE
  5
145
330
1F
100
AcDbEntity
  8
main_beam_width
100
AcDbPolyline
 90
10
 70
0
43
0.0
 10
-15762.5016726
 20
-84.4140774389
 10
-14021.753303
 20
-85.6706147671
 10
-12281.0049335
 20
-86.9271726282
 10
-10540.2565639
 20
-88.1837510812
 10
-8799.50819439
 20
-89.4403501852
 10
-7058.75982488
 20
-90.6969699998
 10
-5318.01145537
 20
-91.9536105845
 10
-3577.26308589
 20
-93.2102719992
 10
-1836.51471642
 20
-94.466954304
 10
-95.7663469637
 20
-95.7236575591
  0
LWPOLYLINE
  5
146
330
1F
100
AcDbEntity
  8
main_beam_width
100
AcDbPolyline
 90
10
 70
0
43
0.0
 10
53125.0580247
 20
-100.398437169
 10
47221.4119921
 20
-102.651517979
 10
41317.7659596
 20
-104.904861783
 10
35414.1199271
 20
-107.158465963
 10
29510.4738948
 20
-109.412327933
 10
23606.8278625
 20
-111.666445139
 10
17703.1818303
 20
-113.920815061
 10
11799.5357982
 20
-116.175435208
 10
5895.88976614
 20
-118.43030312
 10
-7.75626581495
 20
-120.685416366
  0
LWPOLYLINE
  5
147
330
1F
100
AcDbEntity
  8
main_beam_width
100
AcDbPolyline
 90
10
 70
0
43
0.0
 10
53125.1938517
 20
85.2500369211
 10
47242.8588503
 20
83.6244708365
 10
41360.5238488
 20
81.9991658594
 10
35478.1888472
 20
80.3741194001
 10
29595.8538455
 20
78.7493289009
 10
23713.5188438
 20
77.1247918358
 10
17831.183842
 20
75.5005057097
 10
11948.84884
 20
73.8764680584
 10
6066.51383802
 20
72.2526764477
 10
184.178835941
 20
70.6291284734
  0
LWPOLYLINE
  5
148
330
1F
100
AcDbEntity
  8
main_beam_width
100
AcDbPolyline
 90
10
 70
0
43
0.0
 10
184.178835941
 20
70.6291284734
 10
6066.51383802
 20
72.2526764477
 10
11948.84884
 20
73.8764680583
 10
17831.183842
 20
75.5005057097
 10
23713.5188438
 20
77.1247918358
 10
29595.8538455
 20
78.7493289009
 10
35478.1888472
 20
80.3741194001
 10
41360.5238488
 20
81.9991658594
 10
47242.8588503
 20
83.6244708365
 10
53125.1938517
 20
85.2500369211
  0
LWPOLYLINE
  5
149
330
1F
100
AcDbEntity
  8
main_beam_width
100
AcDbPolyline
 90
10
 70
0
43
0.0
 10
-7.75626581496
 20
-120.685416366
 10
5895.88976614
 20
-118.43030312
 10
11799.5357982
 20
-116.175435208
 10
17703.1818303
 20
-113.920815061
 10
23606.8278625
 20
-111.666445139
 10
29510.4738948
 20
-109.412327933
 10
35414.1199271
 20
-107.158465963
 10
41317.7659596
 20
-104.904861783
 10
47221.4119921
 20
-102.651517979
 10
53125.0580247
 20
-100.398437169
  0
LWPOLYLINE
  5
14a
330
1F
100
AcDbEntity
  8
main_beam_width
100
AcDbPolyline
 90
10
 70
0
43
0.0
 10
272.242859908
 20
-19426.2004158
 10
272.041475521
 20
-19437.3482023
 10
271.840093186
 20
-19448.4959888
 10
271.638712906
 20
-19459.6437753
 10
271.437334681
 20
-19470.7915619
 10
271.235958513
 20
-19481.9393485
 10
271.034584404
 20
-19493.0871352
 10
270.833212356
 20
-19504.2349219
 10
270.63184237
 20
-19515.3827086
 10
270.430474447
 20
-19526.5304954
  0
LWPOLYLINE
  5
14b
330
1F
100
AcDbEntity
  8
main_beam_width
100
AcDbPolyline
 90
10
 70
0
43
0.0
 10
257.881048245
 20
-19426.670524
 10
257.684889131
 20
-19437.737614
 10
257.488727993
 20
-19448.8047041
 10
257.292564832
 20
-19459.8717941
 10
257.096399644
 20
-19470.938884
 10
256.900232429
 20
-19482.0059739
 10
256.704063185
 20
-19493.0730638
 10
256.50789191
 20
-19504.1401537
 10
256.311718602
 20
-19515.2072435
 10
256.115543261
 20
-19526.2743333
  0
LWPOLYLINE
  5
14c
330
1F
100
AcDbEntity
  8
main_beam_width
100
AcDbPolyline
 90
10
 70
0
43
0.0
 10
272.242859908
 20
-19426.2004158
 10
272.041475521
 20
-19437.3482023
 10
271.840093186
 20
-19448.4959888
 10
271.638712906
 20
-19459.6437753
 10
271.437334681
 20
-19470.7915619
 10
271.235958513
 20
-19481.9393485
 10
271.034584404
 20
-19493.0871352
 10
270.833212356
 20
-19504.2349219
 10
270.63184237
 20
-19515.3827086
 10
270.430474447
 20
-19526.5304954
  0
LWPOLYLINE
  5
14d
330
1F
100
AcDbEntity
  8
main_beam_width
100
AcDbPolyline
 90
10
 70
0
43
0.0
 10
257.881048245
 20
-19426.670524
 10
257.684889131
 20
-19437.737614
 10
257.488727994
 20
-19448.8047041
 10
257.292564832
 20
-19459.8717941
 10
257.096399644
 20
-19470.938884
 10
256.900232429
 20
-19482.0059739
 10
256.704063185
 20
-19493.0730638
 10
256.50789191
 20
-19504.1401537
 10
256.311718602
 20
-19515.2072435
 10
256.115543261
 20
-19526.2743333
  0
CIRCLE
  5
14f
330
1F
100
AcDbEntity
  8
Vacuum
100
AcDbCircle
 10
-19512.0901964
 20
226.574999379
 30
0.0
  40
750.0
  0
LWPOLYLINE
  5
150
330
1F
100
AcDbEntity
  8
Vacuum
100
AcDbPolyline
 90
5
 70
0
43
0.0
 10
-20362.0901964
 20
619.074999379
 10
-18662.0901964
 20
619.074999379
 10
-18662.0901964
 20
-165.925000621
 10
-20362.0901964
 20
-165.925000621
 10
-20362.0901964
 20
619.074999379
  0
CIRCLE
  5
151
330
1F
100
AcDbEntity
  8
Vacuum
100
AcDbCircle
 10
-4648.14247562
 20
269.304550668
 30
0.0
  40
750.0
  0
LWPOLYLINE
  5
152
330
1F
100
AcDbEntity
  8
Vacuum
100
AcDbPolyline
 90
5
 70
0
43
0.0
 10
-5498.14247562
 20
501.804550668
 10
-3798.14247562
 20
501.804550668
 10
-3798.14247562
 20
-283.195449332
 10
-5498.14247562
 20
-283.195449332
 10
-5498.14247562
 20
501.804550668
  0
CIRCLE
  5
153
330
1F
100
AcDbEntity
  8
Vacuum
100
AcDbCircle
 10
-15813.4545987
 20
11.6583013092
 30
0.0
  40
750.0
  0
LWPOLYLINE
  5
154
330
1F
100
AcDbEntity
  8
Vacuum
100
AcDbPolyline
 90
5
 70
0
43
0.0
 10
-16663.4545987
 20
564.158301309
 10
-14963.4545987
 20
564.158301309
 10
-14963.4545987
 20
-220.841698691
 10
-16663.4545987
 20
-220.841698691
 10
-16663.4545987
 20
564.158301309
  0
LINE
  5
155
330
1F
100
AcDbEntity
  8
Vacuum
100
AcDbLine
 10
-18662.0901964
 20
619.074999379
 30
0.0
  11
-16663.4545987
 21
564.158301309
 31
0.0
  0
LINE
  5
156
330
1F
100
AcDbEntity
  8
Vacuum
100
AcDbLine
 10
-18662.0901964
 20
-165.925000621
 30
0.0
  11
-16663.4545987
 21
-220.841698691
 31
0.0
  0
LINE
  5
157
330
1F
100
AcDbEntity
  8
Vacuum
100
AcDbLine
 10
-14963.4545987
 20
564.158301309
 30
0.0
  11
-5498.14247562
 21
501.804550668
 31
0.0
  0
LINE
  5
158
330
1F
100
AcDbEntity
  8
Vacuum
100
AcDbLine
 10
-14963.4545987
 20
-220.841698691
 30
0.0
  11
-5498.14247562
 21
-283.195449332
 31
0.0
  0
CIRCLE
  5
159
330
1F
100
AcDbEntity
  8
Vacuum
100
AcDbCircle
 10
28.2779650527
 20
-28.2905760365
 30
0.0
  40
750.0
  0
LWPOLYLINE
  5
15a
330
1F
100
AcDbEntity
  8
Vacuum
100
AcDbPolyline
 90
5
 70
0
43
0.0
 10
-821.722034947
 20
364.209423964
 10
878.277965053
 20
364.209423964
 10
878.277965053
 20
-420.790576036
 10
-821.722034947
 20
-420.790576036
 10
-821.722034947
 20
364.209423964
  0
LWPOLYLINE
  5
15b
330
1F
100
AcDbEntity
  8
Vacuum
100
AcDbPolyline
 90
5
 70
0
43
0.0
 10
-364.222034947
 20
821.709423964
 10
420.777965053
 20
821.709423964
 10
420.777965053
 20
-878.290576036
 10
-364.222034947
 20
-878.290576036
 10
-364.222034947
 20
821.709423964
  0
LINE
  5
15c
330
1F
100
AcDbEntity
  8
Vacuum
100
AcDbLine
 10
-3798.14247562
 20
501.804550668
 30
0.0
  11
-821.722034947
 21
364.209423964
 31
0.0
  0
LINE
  5
15d
330
1F
100
AcDbEntity
  8
Vacuum
100
AcDbLine
 10
-3798.14247562
 20
-283.195449332
 30
0.0
  11
-821.722034947
 21
-420.790576036
 31
0.0
  0
CIRCLE
  5
15e
330
1F
100
AcDbEntity
  8
Vacuum
100
AcDbCircle
 10
265.171145199
 20
-19376.4355913
 30
0.0
  40
750.0
  0
LWPOLYLINE
  5
15f
330
1F
100
AcDbEntity
  8
Vacuum
100
AcDbPolyline
 90
5
 70
0
43
0.0
 10
-127.328854801
 20
-18526.4355913
 10
657.671145199
 20
-18526.4355913
 10
657.671145199
 20
-20226.4355913
 10
-127.328854801
 20
-20226.4355913
 10
-127.328854801
 20
-18526.4355913
  0
CIRCLE
  5
160
330
1F
100
AcDbEntity
  8
Vacuum
100
AcDbCircle
 10
298.140858953
 20
-4532.65181384
 30
0.0
  40
750.0
  0
LWPOLYLINE
  5
161
330
1F
100
AcDbEntity
  8
Vacuum
100
AcDbPolyline
 90
5
 70
0
43
0.0
 10
-254.359141047
 20
-3682.65181384
 10
530.640858953
 20
-3682.65181384
 10
530.640858953
 20
-5382.65181384
 10
-254.359141047
 20
-5382.65181384
 10
-254.359141047
 20
-3682.65181384
  0
CIRCLE
  5
162
330
1F
100
AcDbEntity
  8
Vacuum
100
AcDbCircle
 10
46.7147158387
 20
-15743.6344271
 30
0.0
  40
750.0
  0
LWPOLYLINE
  5
163
330
1F
100
AcDbEntity
  8
Vacuum
100
AcDbPolyline
 90
5
 70
0
43
0.0
 10
-345.785284161
 20
-14893.6344271
 10
439.214715839
 20
-14893.6344271
 10
439.214715839
 20
-16593.6344271
 10
-345.785284161
 20
-16593.6344271
 10
-345.785284161
 20
-14893.6344271
  0
LINE
  5
164
330
1F
100
AcDbEntity
  8
Vacuum
100
AcDbLine
 10
-127.328854801
 20
-18526.4355913
 30
0.0
  11
-345.785284161
 21
-16593.6344271
 31
0.0
  0
LINE
  5
165
330
1F
100
AcDbEntity
  8
Vacuum
100
AcDbLine
 10
657.671145199
 20
-18526.4355913
 30
0.0
  11
439.214715839
 21
-16593.6344271
 31
0.0
  0
LINE
  5
166
330
1F
100
AcDbEntity
  8
Vacuum
100
AcDbLine
 10
-345.785284161
 20
-14893.6344271
 30
0.0
  11
-254.359141047
 21
-5382.65181384
 31
0.0
  0
LINE
  5
167
330
1F
100
AcDbEntity
  8
Vacuum
100
AcDbLine
 10
439.214715839
 20
-14893.6344271
 30
0.0
  11
530.640858953
 21
-5382.65181384
 31
0.0
  0
LINE
  5
168
330
1F
100
AcDbEntity
  8
Vacuum
100
AcDbLine
 10
-254.359141047
 20
-3682.65181384
 30
0.0
  11
-364.222034947
 21
-878.290576036
 31
0.0
  0
LINE
  5
169
330
1F
100
AcDbEntity
  8
Vacuum
100
AcDbLine
 10
530.640858953
 20
-3682.65181384
 30
0.0
  11
420.777965053
 21
-878.290576036
 31
0.0
  0
CIRCLE
  5
16a
330
1F
100
AcDbEntity
  8
Vacuum
100
AcDbCircle
 10
26432.1160223
 20
-16.3807284905
 30
0.0
  40
1250.0
  0
LWPOLYLINE
  5
16b
330
1F
100
AcDbEntity
  8
Vacuum
100
AcDbPolyline
 90
5
 70
0
43
0.0
 10
25082.1160223
 20
376.119271509
 10
27782.1160223
 20
376.119271509
 10
27782.1160223
 20
-408.880728491
 10
25082.1160223
 20
-408.880728491
 10
25082.1160223
 20
376.119271509
  0
CIRCLE
  5
16c
330
1F
100
AcDbEntity
  8
Vacuum
100
AcDbCircle
 10
-7.59055707329
 20
23146.9789127
 30
0.0
  40
1250.0
  0
LWPOLYLINE
  5
16d
330
1F
100
AcDbEntity
  8
Vacuum
100
AcDbPolyline
 90
5
 70
0
43
0.0
 10
-400.090557073
 20
24496.9789127
 10
384.909442927
 20
24496.9789127
 10
384.909442927
 20
21796.9789127
 10
-400.090557073
 20
21796.9789127
 10
-400.090557073
 20
24496.9789127
  0
LINE
  5
16e
330
1F
100
AcDbEntity
  8
Vacuum
100
AcDbLine
 10
878.277965053
 20
364.209423964
 30
0.0
  11
25082.1160223
 21
376.119271509
 31
0.0
  0
LINE
  5
16f
330
1F
100
AcDbEntity
  8
Vacuum
100
AcDbLine
 10
878.277965053
 20
-420.790576036
 30
0.0
  11
25082.1160223
 21
-408.880728491
 31
0.0
  0
LINE
  5
170
330
1F
100
AcDbEntity
  8
Vacuum
100
AcDbLine
 10
-364.222034947
 20
821.709423964
 30
0.0
  11
-400.090557073
 21
21796.9789127
 31
0.0
  0
LINE
  5
171
330
1F
100
AcDbEntity
  8
Vacuum
100
AcDbLine
 10
420.777965053
 20
821.709423964
 30
0.0
  11
384.909442927
 21
21796.9789127
 31
0.0
  0
LWPOLYLINE
  5
173
330
1F
100
AcDbEntity
  8
poy_width
100
AcDbPolyline
 90
10
 70
0
43
0.0
 10
18.2558350909
 20
49939.9882545
 10
18.2723035951
 20
49928.8743781
 10
18.2887720995
 20
49917.7605017
 10
18.3052406041
 20
49906.6466253
 10
18.3217091088
 20
49895.5327489
 10
18.3381776137
 20
49884.4188725
 10
18.3546461187
 20
49873.3049961
 10
18.3711146239
 20
49862.1911197
 10
18.3875831293
 20
49851.0772433
 10
18.4040516349
 20
49839.9633669
  0
LWPOLYLINE
  5
174
330
1F
100
AcDbEntity
  8
poy_width
100
AcDbPolyline
 90
10
 70
0
43
0.0
 10
-50.7573532651
 20
49939.9882538
 10
-50.7413041504
 20
49928.8799881
 10
-50.7252550358
 20
49917.7717223
 10
-50.7092059215
 20
49906.6634566
 10
-50.6931568073
 20
49895.5551908
 10
-50.6771076932
 20
49884.4469251
 10
-50.6610585794
 20
49873.3386593
 10
-50.6450094657
 20
49862.2303936
 10
-50.6289603521
 20
49851.1221279
 10
-50.6129112387
 20
49840.0138621
  0
LWPOLYLINE
  5
175
330
1F
100
AcDbEntity
  8
poy_width
100
AcDbPolyline
 90
10
 70
0
43
0.0
 10
141.517061598
 20
141.453978069
 10
144.308320994
 20
131.641913811
 10
147.09958039
 20
121.829849553
 10
149.890839787
 20
112.017785295
 10
152.682099183
 20
102.205721038
 10
155.47335858
 20
92.3936567799
 10
158.264617976
 20
82.5815925222
 10
161.055877373
 20
72.7695282645
 10
163.84713677
 20
62.9574640068
 10
166.638396167
 20
53.1453997491
  0
LWPOLYLINE
  5
176
330
1F
100
AcDbEntity
  8
poy_width
100
AcDbPolyline
 90
10
 70
0
43
0.0
 10
70.00060803
 20
69.969404122
 10
72.7867095616
 20
60.174348067
 10
75.5728110932
 20
50.379292012
 10
78.3589126247
 20
40.584235957
 10
81.1450141562
 20
30.7891799019
 10
83.9311156876
 20
20.9941238469
 10
86.7172172189
 20
11.1990677918
 10
89.5033187502
 20
1.40401173666
 10
92.2894202814
 20
-8.39104431846
 10
95.0755218125
 20
-18.1861003736
  0
LWPOLYLINE
  5
177
330
1F
100
AcDbEntity
  8
poy_width
100
AcDbPolyline
 90
10
 70
0
43
0.0
 10
-50.9023004236
 20
49840.0140739
 10
-50.8861952116
 20
49851.1223161
 10
-50.8700899997
 20
49862.2305583
 10
-50.853984788
 20
49873.3388005
 10
-50.8378795765
 20
49884.4470427
 10
-50.8217743651
 20
49895.5552849
 10
-50.8056691539
 20
49906.6635271
 10
-50.7895639429
 20
49917.7717694
 10
-50.773458732
 20
49928.8800116
 10
-50.7573535213
 20
49939.9882538
  0
LWPOLYLINE
  5
178
330
1F
100
AcDbEntity
  8
poy_width
100
AcDbPolyline
 90
10
 70
0
43
0.0
 10
18.1081283534
 20
49839.9635834
 10
18.124540184
 20
49851.0774357
 10
18.1409520148
 20
49862.1912881
 10
18.1573638457
 20
49873.3051404
 10
18.1737756768
 20
49884.4189928
 10
18.190187508
 20
49895.5328451
 10
18.2065993394
 20
49906.6466975
 10
18.223011171
 20
49917.7605498
 10
18.2394230027
 20
49928.8744022
 10
18.2558348347
 20
49939.9882545
  0
LWPOLYLINE
  5
179
330
1F
100
AcDbEntity
  8
poy_width
100
AcDbPolyline
 90
10
 70
0
43
0.0
 10
18.4040531787
 20
49839.9633669
 10
32.0828768082
 20
44317.9066942
 10
45.761784469
 20
38795.8500217
 10
59.4407750918
 20
33273.7933495
 10
73.1198476249
 20
27751.7366774
 10
86.7990010337
 20
22229.6800056
 10
100.4782343
 20
16707.6233339
 10
114.157546424
 20
11185.5666624
 10
127.836936418
 20
5663.50999117
 10
141.516403315
 20
141.453320079
  0
LWPOLYLINE
  5
17a
330
1F
100
AcDbEntity
  8
poy_width
100
AcDbPolyline
 90
10
 70
0
43
0.0
 10
-50.6129096949
 20
49840.0138621
 10
-37.2111535672
 20
44310.00885
 10
-23.8094817112
 20
38780.0038377
 10
-10.4078930532
 20
33249.9988252
 10
2.99361346297
 20
27719.9938125
 10
16.3950388764
 20
22189.9887996
 10
29.7963842092
 20
16659.9837865
 10
43.1976504668
 20
11129.9787732
 10
56.5988386386
 20
5599.97375976
 10
69.9999496979
 20
69.9687460834
  0
LWPOLYLINE
  5
17b
330
1F
100
AcDbEntity
  8
poy_width
100
AcDbPolyline
 90
10
 70
0
43
0.0
 10
69.9999496979
 20
69.9687460834
 10
-5452.06292334
 20
85.8126498165
 10
-10974.1257966
 20
101.656478552
 10
-16496.1886701
 20
117.500233213
 10
-22018.2515438
 20
133.343914708
 10
-27540.3144177
 20
149.187523932
 10
-33062.3772918
 20
165.031061765
 10
-38584.4401661
 20
180.874529074
 10
-44106.5030406
 20
196.717926711
 10
-49628.5659153
 20
212.561255516
  0
LWPOLYLINE
  5
17c
330
1F
100
AcDbEntity
  8
poy_width
100
AcDbPolyline
 90
10
 70
0
43
0.0
 10
141.516403315
 20
141.453320079
 10
-5388.46880946
 20
157.618152247
 10
-10918.454022
 20
173.783059639
 10
-16448.4392343
 20
189.948041327
 10
-21978.4244465
 20
206.113096399
 10
-27508.4096584
 20
222.278223956
 10
-33038.3948701
 20
238.443423114
 10
-38568.3800816
 20
254.608693002
 10
-44098.3652929
 20
270.774032764
 10
-49628.350504
 20
286.939441557
  0
ENDSEC
  0
SECTION
  2
OBJECTS
  0
DICTIONARY
  5
C
330
0
100
AcDbDictionary
281
     1
  3
ACAD_GROUP
350
D
  3
ACAD_LAYOUT
350
1A
  3
ACAD_MATERIAL
350
3B
  3
ACAD_MLEADERSTYLE
350
6E
  3
ACAD_MLINESTYLE
350
17
  3
ACAD_PLOTSETTINGS
350
19
  3
ACAD_PLOTSTYLENAME
350
E
  3
ACAD_TABLESTYLE
350
6D
  3
ACAD_VISUALSTYLE
350
2A
  0
SUN
  5
3F
330
29
100
AcDbSun
 90
        1
290
     0
 63
     7
421
 16777215
 40
1.0
291
     1
 91
  2455826
 92
 54000000
292
     0
 70
     2
 71
   256
280
     1
  0
DICTIONARY
  5
D
102
{ACAD_REACTORS
330
C
102
}
330
C
100
AcDbDictionary
281
     1
  0
DICTIONARY
  5
1A
102
{ACAD_REACTORS
330
C
102
}
330
C
100
AcDbDictionary
281
     1
  3
Layout1
350
1E
  3
Layout2
350
26
  3
Model
350
22
  0
DICTIONARY
  5
3B
102
{ACAD_REACTORS
330
C
102
}
330
C
100
AcDbDictionary
281
     1
  3
ByBlock
350
3D
  3
ByLayer
350
3C
  3
Global
350
3E
  0
DICTIONARY
  5
6E
102
{ACAD_REACTORS
330
C
102
}
330
C
100
AcDbDictionary
281
     1
  0
DICTIONARY
  5
17
102
{ACAD_REACTORS
330
C
102
}
330
C
100
AcDbDictionary
281
     1
  3
Standard
350
18
  0
DICTIONARY
  5
19
102
{ACAD_REACTORS
330
C
102
}
330
C
100
AcDbDictionary
281
     1
  0
ACDBDICTIONARYWDFLT
  5
E
102
{ACAD_REACTORS
330
C
102
}
330
C
100
AcDbDictionary
281
     1
  3
Normal
350
F
100
AcDbDictionaryWithDefault
340
F
  0
DICTIONARY
  5
6D
102
{ACAD_REACTORS
330
C
102
}
330
C
100
AcDbDictionary
281
     1
  0
DICTIONARY
  5
2A
102
{ACAD_REACTORS
330
C
102
}
330
C
100
AcDbDictionary
281
     1
  3
2dWireframe
350
2F
  3
3D Hidden
350
31
  3
3dWireframe
350
30
  3
Basic
350
32
  3
Brighten
350
36
  3
ColorChange
350
3A
  3
Conceptual
350
34
  3
Dim
350
35
  3
Facepattern
350
39
  3
Flat
350
2B
  3
FlatWithEdges
350
2C
  3
Gouraud
350
2D
  3
GouraudWithEdges
350
2E
  3
Linepattern
350
38
  3
Realistic
350
33
  3
Thicken
350
37
  0
LAYOUT
  5
1E
102
{ACAD_REACTORS
330
1A
102
}
330
1A
100
AcDbPlotSettings
  1

  2
none_device
  4

  6

 40
0.0
 41
0.0
 42
0.0
 43
0.0
 44
0.0
 45
0.0
 46
0.0
 47
0.0
 48
0.0
 49
0.0
140
0.0
141
0.0
142
1.0
143
1.0
 70
   688
 72
     0
 73
     0
 74
     5
  7

 75
    16
 76
     0
 77
     2
 78
   300
147
1.0
148
0.0
149
0.0
100
AcDbLayout
  1
Layout1
 70
     1
 71
     1
 10
0.0
 20
0.0
 11
420.0
 21
297.0
 12
0.0
 22
0.0
 32
0.0
 14
1.000000000000000E+20
 24
1.000000000000000E+20
 34
1.000000000000000E+20
 15
-1.000000000000000E+20
 25
-1.000000000000000E+20
 35
-1.000000000000000E+20
146
0.0
 13
0.0
 23
0.0
 33
0.0
 16
1.0
 26
0.0
 36
0.0
 17
0.0
 27
1.0
 37
0.0
 76
     0
330
1B
  0
LAYOUT
  5
26
102
{ACAD_REACTORS
330
1A
102
}
330
1A
100
AcDbPlotSettings
  1

  2
none_device
  4

  6

 40
0.0
 41
0.0
 42
0.0
 43
0.0
 44
0.0
 45
0.0
 46
0.0
 47
0.0
 48
0.0
 49
0.0
140
0.0
141
0.0
142
1.0
143
1.0
 70
   688
 72
     0
 73
     0
 74
     5
  7

 75
    16
 76
     0
 77
     2
 78
   300
147
1.0
148
0.0
149
0.0
100
AcDbLayout
  1
Layout2
 70
     1
 71
     2
 10
0.0
 20
0.0
 11
0.0
 21
0.0
 12
0.0
 22
0.0
 32
0.0
 14
0.0
 24
0.0
 34
0.0
 15
0.0
 25
0.0
 35
0.0
146
0.0
 13
0.0
 23
0.0
 33
0.0
 16
1.0
 26
0.0
 36
0.0
 17
0.0
 27
1.0
 37
0.0
 76
     0
330
23
  0
LAYOUT
  5
22
102
{ACAD_REACTORS
330
1A
102
}
330
1A
100
AcDbPlotSettings
  1

  2
none_device
  4

  6

 40
0.0
 41
0.0
 42
0.0
 43
0.0
 44
0.0
 45
0.0
 46
0.0
 47
0.0
 48
0.0
 49
0.0
140
0.0
141
0.0
142
1.0
143
1.0
 70
  1712
 72
     0
 73
     0
 74
     0
  7

 75
     0
 76
     0
 77
     2
 78
   300
147
1.0
148
0.0
149
0.0
100
AcDbLayout
  1
Model
 70
     1
 71
     0
 10
0.0
 20
0.0
 11
420.0
 21
297.0
 12
0.0
 22
0.0
 32
0.0
 14
1.0
 24
0.0
 34
0.0
 15
73.0
 25
41.0
 35
0.0
146
0.0
 13
0.0
 23
0.0
 33
0.0
 16
1.0
 26
0.0
 36
0.0
 17
0.0
 27
1.0
 37
0.0
 76
     0
330
1F
331
29
  0
MATERIAL
  5
3D
102
{ACAD_REACTORS
330
3B
102
}
330
3B
100
AcDbMaterial
  1
ByBlock
 72
     1
 94
      127
  0
MATERIAL
  5
3C
102
{ACAD_REACTORS
330
3B
102
}
330
3B
100
AcDbMaterial
  1
ByLayer
 72
     1
 94
      127
  0
MATERIAL
  5
3E
102
{ACAD_REACTORS
330
3B
102
}
330
3B
100
AcDbMaterial
  1
Global
 72
     1
 94
      127
  0
MLINESTYLE
  5
18
102
{ACAD_REACTORS
330
17
102
}
330
17
100
AcDbMlineStyle
  2
Standard
 70
     0
  3

 62
   256
 51
90.0
 52
90.0
 71
     2
 49
0.5
 62
   256
  6
BYLAYER
 49
-0.5
 62
   256
  6
BYLAYER
  0
ACDBPLACEHOLDER
  5
F
102
{ACAD_REACTORS
330
E
102
}
330
E
  0
VISUALSTYLE
  5
2F
102
{ACAD_REACTORS
330
2A
102
}
330
2A
100
AcDbVisualStyle
  2
2dWireframe
 70
     4
177
     2
291
     0
 71
     0
176
     1
 72
     2
176
     1
 73
     0
176
     1
 90
        0
176
     1
 40
-0.6
176
     1
 41
-30.0
176
     1
 62
     5
 63
     7
421
 16777215
176
     1
 74
     1
176
     1
 91
        4
176
     1
 64
     7
176
     1
 65
   257
176
     1
 75
     1
176
     1
175
     1
176
     1
 42
1.0
176
     1
 92
        0
176
     1
 66
   257
176
     1
 43
1.0
176
     1
 76
     1
176
     1
 77
     6
176
     1
 78
     2
176
     1
 67
     7
176
     1
 79
     5
176
     1
170
     0
176
     1
171
     0
176
     1
290
     0
176
     1
 93
        1
176
     1
 44
0.0
176
     1
173
     0
176
     1
  0
VISUALSTYLE
  5
31
102
{ACAD_REACTORS
330
2A
102
}
330
2A
100
AcDbVisualStyle
  2
3D Hidden
 70
     6
177
     2
291
     0
 71
     1
176
     1
 72
     2
176
     1
 73
     2
176
     1
 90
        0
176
     1
 40
-0.6
176
     1
 41
-30.0
176
     1
 62
     5
 63
     7
421
 16777215
176
     1
 74
     2
176
     1
 91
        2
176
     1
 64
     7
176
     1
 65
   257
176
     1
 75
     2
176
     1
175
     1
176
     1
 42
40.0
176
     1
 92
        0
176
     1
 66
   257
176
     1
 43
1.0
176
     1
 76
     1
176
     1
 77
     6
176
     1
 78
     2
176
     1
 67
     7
176
     1
 79
     3
176
     1
170
     0
176
     1
171
     0
176
     1
290
     0
176
     1
 93
        1
176
     1
 44
0.0
176
     1
173
     0
176
     1
  0
VISUALSTYLE
  5
30
102
{ACAD_REACTORS
330
2A
102
}
330
2A
100
AcDbVisualStyle
  2
3dWireframe
 70
     5
177
     2
291
     0
 71
     0
176
     1
 72
     2
176
     1
 73
     0
176
     1
 90
        0
176
     1
 40
-0.6
176
     1
 41
-30.0
176
     1
 62
     5
 63
     7
421
 16777215
176
     1
 74
     1
176
     1
 91
        4
176
     1
 64
     7
176
     1
 65
   257
176
     1
 75
     1
176
     1
175
     1
176
     1
 42
1.0
176
     1
 92
        0
176
     1
 66
   257
176
     1
 43
1.0
176
     1
 76
     1
176
     1
 77
     6
176
     1
 78
     2
176
     1
 67
     7
176
     1
 79
     5
176
     1
170
     0
176
     1
171
     0
176
     1
290
     0
176
     1
 93
        1
176
     1
 44
0.0
176
     1
173
     0
176
     1
  0
VISUALSTYLE
  5
32
102
{ACAD_REACTORS
330
2A
102
}
330
2A
100
AcDbVisualStyle
  2
Basic
 70
     7
177
     2
291
     1
 71
     1
176
     1
 72
     0
176
     1
 73
     1
176
     1
 90
        0
176
     1
 40
-0.6
176
     1
 41
-30.0
176
     1
 62
     5
 63
     7
421
 16777215
176
     1
 74
     0
176
     1
 91
        4
176
     1
 64
     7
176
     1
 65
   257
176
     1
 75
     1
176
     1
175
     1
176
     1
 42
1.0
176
     1
 92
        8
176
     1
 66
     7
176
     1
 43
1.0
176
     1
 76
     1
176
     1
 77
     6
176
     1
 78
     2
176
     1
 67
     7
176
     1
 79
     5
176
     1
170
     0
176
     1
171
     0
176
     1
290
     0
176
     1
 93
        1
176
     1
 44
0.0
176
     1
173
     0
176
     1
  0
VISUALSTYLE
  5
36
102
{ACAD_REACTORS
330
2A
102
}
330
2A
100
AcDbVisualStyle
  2
Brighten
 70
    12
177
     2
291
     1
 71
     2
176
     1
 72
     2
176
     1
 73
     0
176
     1
 90
        0
176
     1
 40
-0.6
176
     1
 41
-30.0
176
     1
 62
     5
 63
     7
421
 16777215
176
     1
 74
     1
176
     1
 91
        4
176
     1
 64
     7
176
     1
 65
   257
176
     1
 75
     1
176
     1
175
     1
176
     1
 42
1.0
176
     1
 92
        8
176
     1
 66
     7
176
     1
 43
1.0
176
     1
 76
     1
176
     1
 77
     6
176
     1
 78
     2
176
     1
 67
     7
176
     1
 79
     5
176
     1
170
     0
176
     1
171
     0
176
     1
290
     0
176
     1
 93
        1
176
     1
 44
50.0
176
     1
173
     0
176
     1
  0
VISUALSTYLE
  5
3A
102
{ACAD_REACTORS
330
2A
102
}
330
2A
100
AcDbVisualStyle
  2
ColorChange
 70
    16
177
     2
291
     1
 71
     2
176
     1
 72
     2
176
     1
 73
     3
176
     1
 90
        0
176
     1
 40
-0.6
176
     1
 41
-30.0
176
     1
 62
     5
 63
     8
421
  8421504
176
     1
 74
     1
176
     1
 91
        4
176
     1
 64
     7
176
     1
 65
   257
176
     1
 75
     1
176
     1
175
     1
176
     1
 42
1.0
176
     1
 92
        8
176
     1
 66
     8
424
  8421504
176
     1
 43
1.0
176
     1
 76
     1
176
     1
 77
     6
176
     1
 78
     2
176
     1
 67
     7
176
     1
 79
     5
176
     1
170
     0
176
     1
171
     0
176
     1
290
     0
176
     1
 93
        1
176
     1
 44
0.0
176
     1
173
     0
176
     1
  0
VISUALSTYLE
  5
34
102
{ACAD_REACTORS
330
2A
102
}
330
2A
100
AcDbVisualStyle
  2
Conceptual
 70
     9
177
     2
291
     0
 71
     3
176
     1
 72
     2
176
     1
 73
     0
176
     1
 90
        0
176
     1
 40
-0.6
176
     1
 41
-30.0
176
     1
 62
     5
 63
     7
421
 16777215
176
     1
 74
     2
176
     1
 91
        2
176
     1
 64
     7
176
     1
 65
   257
176
     1
 75
     1
176
     1
175
     1
176
     1
 42
40.0
176
     1
 92
        8
176
     1
 66
     7
176
     1
 43
1.0
176
     1
 76
     1
176
     1
 77
     6
176
     1
 78
     2
176
     1
 67
     7
176
     1
 79
     3
176
     1
170
     0
176
     1
171
     0
176
     1
290
     0
176
     1
 93
        1
176
     1
 44
0.0
176
     1
173
     0
176
     1
  0
VISUALSTYLE
  5
35
102
{ACAD_REACTORS
330
2A
102
}
330
2A
100
AcDbVisualStyle
  2
Dim
 70
    11
177
     2
291
     1
 71
     2
176
     1
 72
     2
176
     1
 73
     0
176
     1
 90
        0
176
     1
 40
-0.6
176
     1
 41
-30.0
176
     1
 62
     5
 63
     7
421
 16777215
176
     1
 74
     1
176
     1
 91
        4
176
     1
 64
     7
176
     1
 65
   257
176
     1
 75
     1
176
     1
175
     1
176
     1
 42
1.0
176
     1
 92
        8
176
     1
 66
     7
176
     1
 43
1.0
176
     1
 76
     1
176
     1
 77
     6
176
     1
 78
     2
176
     1
 67
     7
176
     1
 79
     5
176
     1
170
     0
176
     1
171
     0
176
     1
290
     0
176
     1
 93
        1
176
     1
 44
-50.0
176
     1
173
     0
176
     1
  0
VISUALSTYLE
  5
39
102
{ACAD_REACTORS
330
2A
102
}
330
2A
100
AcDbVisualStyle
  2
Facepattern
 70
    15
177
     2
291
     1
 71
     2
176
     1
 72
     2
176
     1
 73
     0
176
     1
 90
        0
176
     1
 40
-0.6
176
     1
 41
-30.0
176
     1
 62
     5
 63
     7
421
 16777215
176
     1
 74
     1
176
     1
 91
        4
176
     1
 64
     7
176
     1
 65
   257
176
     1
 75
     1
176
     1
175
     1
176
     1
 42
1.0
176
     1
 92
        8
176
     1
 66
     7
176
     1
 43
1.0
176
     1
 76
     1
176
     1
 77
     6
176
     1
 78
     2
176
     1
 67
     7
176
     1
 79
     5
176
     1
170
     0
176
     1
171
     0
176
     1
290
     0
176
     1
 93
        1
176
     1
 44
0.0
176
     1
173
     0
176
     1
  0
VISUALSTYLE
  5
2B
102
{ACAD_REACTORS
330
2A
102
}
330
2A
100
AcDbVisualStyle
  2
Flat
 70
     0
177
     2
291
     1
 71
     2
176
     1
 72
     1
176
     1
 73
     1
176
     1
 90
        2
176
     1
 40
-0.6
176
     1
 41
30.0
176
     1
 62
     5
 63
     7
421
 16777215
176
     1
 74
     0
176
     1
 91
        4
176
     1
 64
     7
176
     1
 65
   257
176
     1
 75
     1
176
     1
175
     1
176
     1
 42
1.0
176
     1
 92
        8
176
     1
 66
     7
176
     1
 43
1.0
176
     1
 76
     1
176
     1
 77
     6
176
     1
 78
     2
176
     1
 67
     7
176
     1
 79
     5
176
     1
170
     0
176
     1
171
     0
176
     1
290
     0
176
     1
 93
       13
176
     1
 44
0.0
176
     1
173
     0
176
     1
  0
VISUALSTYLE
  5
2C
102
{ACAD_REACTORS
330
2A
102
}
330
2A
100
AcDbVisualStyle
  2
FlatWithEdges
 70
     1
177
     2
291
     1
 71
     2
176
     1
 72
     1
176
     1
 73
     1
176
     1
 90
        2
176
     1
 40
-0.6
176
     1
 41
30.0
176
     1
 62
     5
 63
     7
421
 16777215
176
     1
 74
     1
176
     1
 91
        4
176
     1
 64
     7
176
     1
 65
   257
176
     1
 75
     1
176
     1
175
     1
176
     1
 42
1.0
176
     1
 92
        0
176
     1
 66
   257
176
     1
 43
1.0
176
     1
 76
     1
176
     1
 77
     6
176
     1
 78
     2
176
     1
 67
     7
176
     1
 79
     5
176
     1
170
     0
176
     1
171
     0
176
     1
290
     0
176
     1
 93
       13
176
     1
 44
0.0
176
     1
173
     0
176
     1
  0
VISUALSTYLE
  5
2D
102
{ACAD_REACTORS
330
2A
102
}
330
2A
100
AcDbVisualStyle
  2
Gouraud
 70
     2
177
     2
291
     1
 71
     2
176
     1
 72
     2
176
     1
 73
     1
176
     1
 90
        2
176
     1
 40
-0.6
176
     1
 41
30.0
176
     1
 62
     5
 63
     7
421
 16777215
176
     1
 74
     0
176
     1
 91
        4
176
     1
 64
     7
176
     1
 65
   257
176
     1
 75
     1
176
     1
175
     1
176
     1
 42
1.0
176
     1
 92
        0
176
     1
 66
     7
176
     1
 43
1.0
176
     1
 76
     1
176
     1
 77
     6
176
     1
 78
     2
176
     1
 67
     7
176
     1
 79
     5
176
     1
170
     0
176
     1
171
     0
176
     1
290
     0
176
     1
 93
       13
176
     1
 44
0.0
176
     1
173
     0
176
     1
  0
VISUALSTYLE
  5
2E
102
{ACAD_REACTORS
330
2A
102
}
330
2A
100
AcDbVisualStyle
  2
GouraudWithEdges
 70
     3
177
     2
291
     1
 71
     2
176
     1
 72
     2
176
     1
 73
     1
176
     1
 90
        2
176
     1
 40
-0.6
176
     1
 41
30.0
176
     1
 62
     5
 63
     7
421
 16777215
176
     1
 74
     1
176
     1
 91
        4
176
     1
 64
     7
176
     1
 65
   257
176
     1
 75
     1
176
     1
175
     1
176
     1
 42
1.0
176
     1
 92
        0
176
     1
 66
   257
176
     1
 43
1.0
176
     1
 76
     1
176
     1
 77
     6
176
     1
 78
     2
176
     1
 67
     7
176
     1
 79
     5
176
     1
170
     0
176
     1
171
     0
176
     1
290
     0
176
     1
 93
       13
176
     1
 44
0.0
176
     1
173
     0
176
     1
  0
VISUALSTYLE
  5
38
102
{ACAD_REACTORS
330
2A
102
}
330
2A
100
AcDbVisualStyle
  2
Linepattern
 70
    14
177
     2
291
     1
 71
     2
176
     1
 72
     2
176
     1
 73
     0
176
     1
 90
        0
176
     1
 40
-0.6
176
     1
 41
-30.0
176
     1
 62
     5
 63
     7
421
 16777215
176
     1
 74
     1
176
     1
 91
        4
176
     1
 64
     7
176
     1
 65
   257
176
     1
 75
     7
176
     1
175
     7
176
     1
 42
1.0
176
     1
 92
        8
176
     1
 66
     7
176
     1
 43
1.0
176
     1
 76
     1
176
     1
 77
     6
176
     1
 78
     2
176
     1
 67
     7
176
     1
 79
     5
176
     1
170
     0
176
     1
171
     0
176
     1
290
     0
176
     1
 93
        1
176
     1
 44
0.0
176
     1
173
     0
176
     1
  0
VISUALSTYLE
  5
33
102
{ACAD_REACTORS
330
2A
102
}
330
2A
100
AcDbVisualStyle
  2
Realistic
 70
     8
177
     2
291
     0
 71
     2
176
     1
 72
     2
176
     1
 73
     0
176
     1
 90
        0
176
     1
 40
-0.6
176
     1
 41
-30.0
176
     1
 62
     5
 63
     7
421
 16777215
176
     1
 74
     1
176
     1
 91
        0
176
     1
 64
     7
176
     1
 65
   257
176
     1
 75
     1
176
     1
175
     1
176
     1
 42
1.0
176
     1
 92
        8
176
     1
 66
     8
424
  7895160
176
     1
 43
1.0
176
     1
 76
     1
176
     1
 77
     6
176
     1
 78
     2
176
     1
 67
     7
176
     1
 79
     5
176
     1
170
     0
176
     1
171
     0
176
     1
290
     0
176
     1
 93
       13
176
     1
 44
0.0
176
     1
173
     0
176
     1
  0
VISUALSTYLE
  5
37
102
{ACAD_REACTORS
330
2A
102
}
330
2A
100
AcDbVisualStyle
  2
Thicken
 70
    13
177
     2
291
     1
 71
     2
176
     1
 72
     2
176
     1
 73
     0
176
     1
 90
        0
176
     1
 40
-0.6
176
     1
 41
-30.0
176
     1
 62
     5
 63
     7
421
 16777215
176
     1
 74
     1
176
     1
 91
        4
176
     1
 64
     7
176
     1
 65
   257
176
     1
 75
     1
176
     1
175
     1
176
     1
 42
1.0
176
     1
 92
       12
176
     1
 66
     7
176
     1
 43
1.0
176
     1
 76
     1
176
     1
 77
     6
176
     1
 78
     2
176
     1
 67
     7
176
     1
 79
     5
176
     1
170
     0
176
     1
171
     0
176
     1
290
     0
176
     1
 93
        1
176
     1
 44
0.0
176
     1
173
     0
176
     1
  0
ENDSEC
0
EOF
