  0
SECTION
  2
HEADER
  9
$ACADVER
  1
AC1024
  9
$ACADMAINTVER
 70
     6
  9
$DWGCODEPAGE
  3
ANSI_1252
  9
$INSBASE
 10
0.0
 20
0.0
 30
0.0
  9
$EXTMIN
 10
-29796.2890101
 20
-20226.4355913
 30
0.0
  9
$EXTMAX
 10
3026657.58962
 20
3023372.45251
 30
0.0
  9
$LIMMIN
 10
-29796.2890101
 20
-20226.4355913
  9
$LIMMAX
 10
3026657.58962
 20
3023372.45251
  9
$ORTHOMODE
 70
     0
  9
$REGENMODE
 70
     1
  9
$FILLMODE
 70
     1
  9
$QTEXTMODE
 70
     0
  9
$MIRRTEXT
 70
     1
  9
$LTSCALE
 40
1.0
  9
$ATTMODE
 70
     1
  9
$TEXTSIZE
 40
2.5
  9
$TRACEWID
 40
1.0
  9
$TEXTSTYLE
  7
Standard
  9
$CLAYER
  8
Outline
  9
$CELTYPE
  6
ByLayer
  9
$CECOLOR
 62
   256
  9
$CELTSCALE
 40
1.0
  9
$DISPSILH
 70
     0
  9
$DIMSCALE
 40
1.0
  9
$DIMASZ
 40
2.5
  9
$DIMEXO
 40
0.625
  9
$DIMDLI
 40
3.75
  9
$DIMRND
 40
0.0
  9
$DIMDLE
 40
0.0
  9
$DIMEXE
 40
1.25
  9
$DIMTP
 40
0.0
  9
$DIMTM
 40
0.0
  9
$DIMTXT
 40
2.5
  9
$DIMCEN
 40
2.5
  9
$DIMTSZ
 40
0.0
  9
$DIMTOL
 70
     0
  9
$DIMLIM
 70
     0
  9
$DIMTIH
 70
     0
  9
$DIMTOH
 70
     0
  9
$DIMSE1
 70
     0
  9
$DIMSE2
 70
     0
  9
$DIMTAD
 70
     1
  9
$DIMZIN
 70
     8
  9
$DIMBLK
  1

  9
$DIMASO
 70
     1
  9
$DIMSHO
 70
     1
  9
$DIMPOST
  1

  9
$DIMAPOST
  1

  9
$DIMALT
 70
     0
  9
$DIMALTD
 70
     3
  9
$DIMALTF
 40
0.03937007874016
  9
$DIMLFAC
 40
1.0
  9
$DIMTOFL
 70
     1
  9
$DIMTVP
 40
0.0
  9
$DIMTIX
 70
     0
  9
$DIMSOXD
 70
     0
  9
$DIMSAH
 70
     0
  9
$DIMBLK1
  1

  9
$DIMBLK2
  1

  9
$DIMSTYLE
  2
ISO-25
  9
$DIMCLRD
 70
     0
  9
$DIMCLRE
 70
     0
  9
$DIMCLRT
 70
     0
  9
$DIMTFAC
 40
1.0
  9
$DIMGAP
 40
0.625
  9
$DIMJUST
 70
     0
  9
$DIMSD1
 70
     0
  9
$DIMSD2
 70
     0
  9
$DIMTOLJ
 70
     0
  9
$DIMTZIN
 70
     8
  9
$DIMALTZ
 70
     0
  9
$DIMALTTZ
 70
     0
  9
$DIMUPT
 70
     0
  9
$DIMDEC
 70
     2
  9
$DIMTDEC
 70
     2
  9
$DIMALTU
 70
     2
  9
$DIMALTTD
 70
     3
  9
$DIMTXSTY
  7
Standard
  9
$DIMAUNIT
 70
     0
  9
$DIMADEC
 70
     0
  9
$DIMALTRND
 40
0.0
  9
$DIMAZIN
 70
     0
  9
$DIMDSEP
 70
    44
  9
$DIMATFIT
 70
     3
  9
$DIMFRAC
 70
     0
  9
$DIMLDRBLK
  1

  9
$DIMLUNIT
 70
     2
  9
$DIMLWD
 70
    -2
  9
$DIMLWE
 70
    -2
  9
$DIMTMOVE
 70
     0
  9
$DIMFXL
 40
1.0
  9
$DIMFXLON
 70
     0
  9
$DIMJOGANG
 40
0.7853981633974483
  9
$DIMTFILL
 70
     0
  9
$DIMTFILLCLR
 70
     0
  9
$DIMARCSYM
 70
     0
  9
$DIMLTYPE
  6

  9
$DIMLTEX1
  6

  9
$DIMLTEX2
  6

  9
$DIMTXTDIRECTION
 70
     0
  9
$LUNITS
 70
     2
  9
$LUPREC
 70
     4
  9
$SKETCHINC
 40
1.0
  9
$FILLETRAD
 40
10.0
  9
$AUNITS
 70
     0
  9
$AUPREC
 70
     0
  9
$MENU
  1
.
  9
$ELEVATION
 40
0.0
  9
$PELEVATION
 40
0.0
  9
$THICKNESS
 40
0.0
  9
$LIMCHECK
 70
     0
  9
$CHAMFERA
 40
10.0
  9
$CHAMFERB
 40
10.0
  9
$CHAMFERC
 40
20.0
  9
$CHAMFERD
 40
0.0
  9
$SKPOLY
 70
     0
  9
$TDCREATE
 40
2456231.748506945
  9
$TDUCREATE
 40
2456231.373506945
  9
$TDUPDATE
 40
2456231.748506945
  9
$TDUUPDATE
 40
2456231.373506945
  9
$TDINDWG
 40
0.0000000116
  9
$TDUSRTIMER
 40
0.0000000116
  9
$USRTIMER
 70
     1
  9
$ANGBASE
 50
0.0
  9
$ANGDIR
 70
     0
  9
$PDMODE
 70
     0
  9
$PDSIZE
 40
0.0
  9
$PLINEWID
 40
0.0
  9
$SPLFRAME
 70
     0
  9
$SPLINETYPE
 70
     6
  9
$SPLINESEGS
 70
     8
  9
$HANDSEED
  5
6F
  9
$SURFTAB1
 70
     6
  9
$SURFTAB2
 70
     6
  9
$SURFTYPE
 70
     6
  9
$SURFU
 70
     6
  9
$SURFV
 70
     6
  9
$UCSBASE
  2

  9
$UCSNAME
  2

  9
$UCSORG
 10
0.0
 20
0.0
 30
0.0
  9
$UCSXDIR
 10
1.0
 20
0.0
 30
0.0
  9
$UCSYDIR
 10
0.0
 20
1.0
 30
0.0
  9
$UCSORTHOREF
  2

  9
$UCSORTHOVIEW
 70
     0
  9
$UCSORGTOP
 10
0.0
 20
0.0
 30
0.0
  9
$UCSORGBOTTOM
 10
0.0
 20
0.0
 30
0.0
  9
$UCSORGLEFT
 10
0.0
 20
0.0
 30
0.0
  9
$UCSORGRIGHT
 10
0.0
 20
0.0
 30
0.0
  9
$UCSORGFRONT
 10
0.0
 20
0.0
 30
0.0
  9
$UCSORGBACK
 10
0.0
 20
0.0
 30
0.0
  9
$PUCSBASE
  2

  9
$PUCSNAME
  2

  9
$PUCSORG
 10
0.0
 20
0.0
 30
0.0
  9
$PUCSXDIR
 10
1.0
 20
0.0
 30
0.0
  9
$PUCSYDIR
 10
0.0
 20
1.0
 30
0.0
  9
$PUCSORTHOREF
  2

  9
$PUCSORTHOVIEW
 70
     0
  9
$PUCSORGTOP
 10
0.0
 20
0.0
 30
0.0
  9
$PUCSORGBOTTOM
 10
0.0
 20
0.0
 30
0.0
  9
$PUCSORGLEFT
 10
0.0
 20
0.0
 30
0.0
  9
$PUCSORGRIGHT
 10
0.0
 20
0.0
 30
0.0
  9
$PUCSORGFRONT
 10
0.0
 20
0.0
 30
0.0
  9
$PUCSORGBACK
 10
0.0
 20
0.0
 30
0.0
  9
$USERI1
 70
     0
  9
$USERI2
 70
     0
  9
$USERI3
 70
     0
  9
$USERI4
 70
     0
  9
$USERI5
 70
     0
  9
$USERR1
 40
0.0
  9
$USERR2
 40
0.0
  9
$USERR3
 40
0.0
  9
$USERR4
 40
0.0
  9
$USERR5
 40
0.0
  9
$WORLDVIEW
 70
     1
  9
$SHADEDGE
 70
     3
  9
$SHADEDIF
 70
    70
  9
$TILEMODE
 70
     1
  9
$MAXACTVP
 70
    64
  9
$PINSBASE
 10
0.0
 20
0.0
 30
0.0
  9
$PLIMCHECK
 70
     0
  9
$PEXTMIN
 10
1.000000000000000E+20
 20
1.000000000000000E+20
 30
1.000000000000000E+20
  9
$PEXTMAX
 10
-1.000000000000000E+20
 20
-1.000000000000000E+20
 30
-1.000000000000000E+20
  9
$PLIMMIN
 10
0.0
 20
0.0
  9
$PLIMMAX
 10
420.0
 20
297.0
  9
$UNITMODE
 70
     0
  9
$VISRETAIN
 70
     1
  9
$PLINEGEN
 70
     0
  9
$PSLTSCALE
 70
     1
  9
$TREEDEPTH
 70
  3020
  9
$CMLSTYLE
  2
Standard
  9
$CMLJUST
 70
     0
  9
$CMLSCALE
 40
20.0
  9
$PROXYGRAPHICS
 70
     1
  9
$MEASUREMENT
 70
     1
  9
$CELWEIGHT
370
    -1
  9
$ENDCAPS
280
     0
  9
$JOINSTYLE
280
     0
  9
$LWDISPLAY
290
     0
  9
$INSUNITS
 70
     4
  9
$HYPERLINKBASE
  1

  9
$STYLESHEET
  1

  9
$XEDIT
290
     1
  9
$CEPSNTYPE
380
     0
  9
$PSTYLEMODE
290
     1
  9
$FINGERPRINTGUID
  2
{92905EEA-4798-D3AF-0738-BBE039DCC74E}
  9
$VERSIONGUID
  2
{FAEB1C32-E019-11D5-929B-00C0DF256EC4}
  9
$EXTNAMES
290
     1
  9
$PSVPSCALE
 40
0.0
  9
$OLESTARTUP
290
     0
  9
$SORTENTS
280
   127
  9
$INDEXCTL
280
     0
  9
$HIDETEXT
280
     1
  9
$XCLIPFRAME
280
     2
  9
$HALOGAP
280
     0
  9
$OBSCOLOR
 70
   257
  9
$OBSLTYPE
280
     0
  9
$INTERSECTIONDISPLAY
280
     0
  9
$INTERSECTIONCOLOR
 70
   257
  9
$DIMASSOC
280
     2
  9
$PROJECTNAME
  1

  9
$CAMERADISPLAY
290
     0
  9
$LENSLENGTH
 40
50.0
  9
$CAMERAHEIGHT
 40
0.0
  9
$STEPSPERSEC
 40
2.0
  9
$STEPSIZE
 40
6.0
  9
$3DDWFPREC
 40
2.0
  9
$PSOLWIDTH
 40
5.0
  9
$PSOLHEIGHT
 40
80.0
  9
$LOFTANG1
 40
1.570796326794897
  9
$LOFTANG2
 40
1.570796326794897
  9
$LOFTMAG1
 40
0.0
  9
$LOFTMAG2
 40
0.0
  9
$LOFTPARAM
 70
     7
  9
$LOFTNORMALS
280
     1
  9
$LATITUDE
 40
37.795
  9
$LONGITUDE
 40
-122.394
  9
$NORTHDIRECTION
 40
0.0
  9
$TIMEZONE
 70
 -8000
  9
$LIGHTGLYPHDISPLAY
280
     1
  9
$TILEMODELIGHTSYNCH
280
     1
  9
$CMATERIAL
347
3C
  9
$SOLIDHIST
280
     1
  9
$SHOWHIST
280
     1
  9
$DWFFRAME
280
     2
  9
$DGNFRAME
280
     2
  9
$REALWORLDSCALE
290
     1
  9
$INTERFERECOLOR
 62
   256
  9
$CSHADOW
280
     0
  9
$SHADOWPLANELOCATION
 40
0.0
  0
ENDSEC
  0
SECTION
  2
CLASSES
  0
CLASS
  1
ACDBDICTIONARYWDFLT
  2
AcDbDictionaryWithDefault
  3
ObjectDBX Classes
 90
        0
 91
        4
280
     0
281
     0
  0
CLASS
  1
VISUALSTYLE
  2
AcDbVisualStyle
  3
ObjectDBX Classes
 90
     4095
 91
        4
280
     0
281
     0
  0
CLASS
  1
MATERIAL
  2
AcDbMaterial
  3
ObjectDBX Classes
 90
     1153
 91
        4
280
     0
281
     0
  0
CLASS
  1
SUN
  2
AcDbSun
  3
SCENEOE
 90
     1024
 91
        4
280
     0
281
     0
  0
ENDSEC
  0
SECTION
  2
TABLES
  0
TABLE
  2
VPORT
  5
8
330
0
100
AcDbSymbolTable
 70
     1
  0
VPORT
  5
29
330
8
100
AcDbSymbolTableRecord
100
AcDbViewportTableRecord
  2
*Active
 70
     0
 10
0.0
 20
0.0
 11
1.0
 21
1.0
 12
360.5069142256372
 22
77.37740091485402
 13
0.0
 23
0.0
 14
10.0
 24
10.0
 15
10.0
 25
10.0
 16
0.0
 26
0.0
 36
1.0
 17
0.0
 27
0.0
 37
0.0
 40
643.00113180099
 41
2.116173120728929
 42
50.0
 43
0.0
 44
0.0
 50
0.0
 51
0.0
 71
     0
 72
   100
 73
     1
 74
     3
 75
     0
 76
     0
 77
     0
 78
     0
281
     0
 65
     1
110
0.0
120
0.0
130
0.0
111
1.0
121
0.0
131
0.0
112
0.0
122
1.0
132
0.0
 79
     0
146
0.0
 60
     3
 61
     5
292
     1
282
     1
141
0.0
142
0.0
 63
   250
361
3F
  0
ENDTAB
  0
TABLE
  2
LTYPE
  5
5
330
0
100
AcDbSymbolTable
 70
     7
  0
LTYPE
  5
14
330
5
100
AcDbSymbolTableRecord
100
AcDbLinetypeTableRecord
  2
ByBlock
 70
     0
  3

 72
    65
 73
     0
 40
0.0
  0
LTYPE
  5
15
330
5
100
AcDbSymbolTableRecord
100
AcDbLinetypeTableRecord
  2
ByLayer
 70
     0
  3

 72
    65
 73
     0
 40
0.0
  0
LTYPE
  5
16
330
5
100
AcDbSymbolTableRecord
100
AcDbLinetypeTableRecord
  2
Continuous
 70
     0
  3
Solid line
 72
    65
 73
     0
 40
0.0
  0
LTYPE
  5
40
330
5
100
AcDbSymbolTableRecord
100
AcDbLinetypeTableRecord
  2
DOT
 70
     0
  3
Dot . . . . . . . . . . . . . . . . . . . . . . . .
 72
    65
 73
     2
 40
2.032
 49
1.016
 74
     0
 49
-1.016
 74
     0
  0
LTYPE
  5
41
330
5
100
AcDbSymbolTableRecord
100
AcDbLinetypeTableRecord
  2
CENTER
 70
     0
  3
Center ____ _ ____ _ ____ _ ____ _ ____ _ ____
 72
    65
 73
     4
 40
13.208
 49
8.128
 74
     0
 49
-1.524
 74
     0
 49
2.032
 74
     0
 49
-1.524
 74
     0
  0
LTYPE
  5
42
330
5
100
AcDbSymbolTableRecord
100
AcDbLinetypeTableRecord
  2
HIDDEN2
 70
     0
  3
Hidden (.5x) _ _ _ _ _ _ _ _ _ _ _ _ _ _ _ _ _
 72
    65
 73
     2
 40
4.762499999999999
 49
3.175
 74
     0
 49
-1.5875
 74
     0
  0
LTYPE
  5
43
330
5
100
AcDbSymbolTableRecord
100
AcDbLinetypeTableRecord
  2
DASHED
 70
     0
  3
Dashed __ __ __ __ __ __ __ __ __ __ __ __ __ _
 72
    65
 73
     2
 40
9.652
 49
8.128
 74
     0
 49
-1.524
 74
     0
  0
LTYPE
  5
44
330
5
100
AcDbSymbolTableRecord
100
AcDbLinetypeTableRecord
  2
PHANTOM2
 70
     0
  3
Phantom (.5x) ___ _ _ ___ _ _ ___ _ _ ___ _ _
 72
    65
 73
     6
 40
14.732
 49
8.128
 74
     0
 49
-1.524
 74
     0
 49
1.016
 74
     0
 49
-1.524
 74
     0
 49
1.016
 74
     0
 49
-1.524
 74
     0
  0
LTYPE
  5
45
330
5
100
AcDbSymbolTableRecord
100
AcDbLinetypeTableRecord
  2
DASHDOT
 70
     0
  3
Dash dot __ . __ . __ . __ . __ . __ . __ . __
 72
    65
 73
     4
 40
11.176
 49
8.128
 74
     0
 49
-1.524
 74
     0
 49
0.0
 74
     0
 49
-1.524
 74
     0
  0
ENDTAB
  0
TABLE
  2
LAYER
  5
2
330
0
100
AcDbSymbolTable
 70
     7
  0
LAYER
  5
10
330
2
100
AcDbSymbolTableRecord
100
AcDbLayerTableRecord
  2
0
 70
     0
 62
     5
  6
Continuous
370
    -3
390
F
347
3E
  0
LAYER
  5
46
330
2
100
AcDbSymbolTableRecord
100
AcDbLayerTableRecord
  2
Default
 70
     0
 62
     255
  6
Continuous
370
    -3
390
F
347
3E
  0
LAYER
  5
78
330
2
100
AcDbSymbolTableRecord
100
AcDbLayerTableRecord
  2
Mirrors
 70
0
 62
255
  6
Continuous
370
    -3
390
F
347
3E
  0
LAYER
  5
c9
330
2
100
AcDbSymbolTableRecord
100
AcDbLayerTableRecord
  2
input_beam
 70
0
 62
255
  6
Continuous
370
    -3
390
F
347
3E
  0
LAYER
  5
d8
330
2
100
AcDbSymbolTableRecord
100
AcDbLayerTableRecord
  2
text
 70
0
 62
255
  6
Continuous
370
    -3
390
F
347
3E
  0
LAYER
  5
14a
330
2
100
AcDbSymbolTableRecord
100
AcDbLayerTableRecord
  2
main_beam
 70
0
 62
1
  6
Continuous
370
    -3
390
F
347
3E
  0
LAYER
  5
161
330
2
100
AcDbSymbolTableRecord
100
AcDbLayerTableRecord
  2
aux_beam
 70
0
 62
3
  6
Continuous
370
    -3
390
F
347
3E
  0
LAYER
  5
162
330
2
100
AcDbSymbolTableRecord
100
AcDbLayerTableRecord
  2
pox_beam
 70
0
 62
5
  6
Continuous
370
    -3
390
F
347
3E
  0
LAYER
  5
163
330
2
100
AcDbSymbolTableRecord
100
AcDbLayerTableRecord
  2
stray_beam
 70
0
 62
3
  6
Continuous
370
    -3
390
F
347
3E
  0
LAYER
  5
1a1
330
2
100
AcDbSymbolTableRecord
100
AcDbLayerTableRecord
  2
poy_beam
 70
0
 62
5
  6
Continuous
370
    -3
390
F
347
3E
  0
LAYER
  5
1a2
330
2
100
AcDbSymbolTableRecord
100
AcDbLayerTableRecord
  2
main_beam_width
 70
0
 62
6
  6
Continuous
370
    -3
390
F
347
3E
  0
LAYER
  5
1cf
330
2
100
AcDbSymbolTableRecord
100
AcDbLayerTableRecord
  2
Vacuum
 70
0
 62
255
  6
Continuous
370
    -3
390
F
347
3E
  0
LAYER
  5
1ff
330
2
100
AcDbSymbolTableRecord
100
AcDbLayerTableRecord
  2
poy_beam_width
 70
0
 62
4
  6
Continuous
370
    -3
390
F
347
3E
  0
LAYER
  5
299
330
2
100
AcDbSymbolTableRecord
100
AcDbLayerTableRecord
  2
aux_beam_width
 70
0
 62
4
  6
Continuous
370
    -3
390
F
347
3E
  0
LAYER
  5
21d
330
2
100
AcDbSymbolTableRecord
100
AcDbLayerTableRecord
  2
pox_beam_width
 70
0
 62
4
  6
Continuous
370
    -3
390
F
347
3E
  0
LAYER
  5
21e
330
2
100
AcDbSymbolTableRecord
100
AcDbLayerTableRecord
  2
stray_beam_width
 70
0
 62
4
  6
Continuous
370
    -3
390
F
347
3E
  0
LAYER
  5
200
330
2
100
AcDbSymbolTableRecord
100
AcDbLayerTableRecord
  2
input_beam_width
 70
0
 62
255
  6
Continuous
370
    -3
390
F
347
3E
  0
ENDTAB
  0
TABLE
  2
STYLE
  5
3
330
0
100
AcDbSymbolTable
 70
    33
  0
STYLE
  5
11
330
3
100
AcDbSymbolTableRecord
100
AcDbTextStyleTableRecord
  2
Standard
 70
     0
 40
0.0
 41
1.0
 50
0.0
 71
     0
 42
2.5
  3
txt
  4

  0
ENDTAB
  0
TABLE
  2
VIEW
  5
6
330
0
100
AcDbSymbolTable
 70
     0
  0
ENDTAB
  0
TABLE
  2
UCS
  5
7
330
0
100
AcDbSymbolTable
 70
     0
  0
ENDTAB
  0
TABLE
  2
APPID
  5
9
330
0
100
AcDbSymbolTable
 70
     1
  0
APPID
  5
12
330
9
100
AcDbSymbolTableRecord
100
AcDbRegAppTableRecord
  2
ACAD
 70
     0
  0
ENDTAB
  0
TABLE
  2
DIMSTYLE
  5
A
330
0
100
AcDbSymbolTable
 70
     1
100
AcDbDimStyleTable
  0
DIMSTYLE
105
27
330
A
100
AcDbSymbolTableRecord
100
AcDbDimStyleTableRecord
  2
ISO-25
 70
     0
 41
2.5
 42
0.625
 43
3.75
 44
1.25
 73
     0
 74
     0
 77
     1
 78
     8
140
2.5
141
2.5
143
0.03937007874016
147
0.625
171
     3
172
     1
178
     0
271
     2
272
     2
274
     3
278
    44
283
     0
284
     8
340
11
  0
ENDTAB
  0
TABLE
  2
BLOCK_RECORD
  5
1
330
0
100
AcDbSymbolTable
 70
     1
  0
BLOCK_RECORD
  5
1F
330
1
100
AcDbSymbolTableRecord
100
AcDbBlockTableRecord
  2
*Model_Space
340
22
 70
     0
280
     1
281
     0
  0
BLOCK_RECORD
  5
1B
330
1
100
AcDbSymbolTableRecord
100
AcDbBlockTableRecord
  2
*Paper_Space
340
1E
 70
     0
280
     1
281
     0
  0
BLOCK_RECORD
  5
23
330
1
100
AcDbSymbolTableRecord
100
AcDbBlockTableRecord
  2
*Paper_Space0
340
26
 70
     0
280
     1
281
     0
  0
ENDTAB
    0
ENDSEC
  0
SECTION
  2
BLOCKS
  0
BLOCK
  5
20
330
1F
100
AcDbEntity
  8
0
100
AcDbBlockBegin
  2
*Model_Space
 70
     0
 10
0.0
 20
0.0
 30
0.0
  3
*Model_Space
  1

  0
ENDBLK
  5
21
330
1F
100
AcDbEntity
  8
0
100
AcDbBlockEnd
  0
BLOCK
  5
1C
330
1B
100
AcDbEntity
 67
     1
  8
0
100
AcDbBlockBegin
  2
*Paper_Space
 70
     0
 10
0.0
 20
0.0
 30
0.0
  3
*Paper_Space
  1

  0
ENDBLK
  5
1D
330
1B
100
AcDbEntity
 67
     1
  8
0
100
AcDbBlockEnd
  0
BLOCK
  5
24
330
23
100
AcDbEntity
  8
0
100
AcDbBlockBegin
  2
*Paper_Space0
 70
     0
 10
0.0
 20
0.0
 30
0.0
  3
*Paper_Space0
  1

  0
ENDBLK
  5
25
330
23
100
AcDbEntity
  8
0
100
AcDbBlockEnd
  0
ENDSEC
  0
SECTION
  2
ENTITIES
  0
LINE
  5
79
330
1F
100
AcDbEntity
  8
Mirrors
100
AcDbLine
 10
172.235133536
 20
-15694.9556356
 30
0.0
  11
171.226432245
 21
-15790.5852197
 31
0.0
  0
LINE
  5
7a
330
1F
100
AcDbEntity
  8
Mirrors
100
AcDbLine
 10
-78.8517423525
 20
-15796.6780719
 30
0.0
  11
-77.7509600738
 21
-15692.3187811
 31
0.0
  0
LINE
  5
7b
330
1F
100
AcDbEntity
  8
Mirrors
100
AcDbLine
 10
-77.8564342524
 20
-15702.3182249
 30
0.0
  11
172.129659358
 21
-15704.9550793
 31
0.0
  0
LWPOLYLINE
  5
7c
330
1F
100
AcDbEntity
  8
Mirrors
100
AcDbPolyline
 90
60
 70
0
43
0.0
 10
-77.7509600738
 20
-15692.3187811
 10
-73.4410791589
 20
-15692.3854943
 10
-69.131190379
 20
-15692.4514619
 10
-64.8212937341
 20
-15692.5166839
 10
-60.5113892243
 20
-15692.5811602
 10
-56.2014768494
 20
-15692.6448909
 10
-51.8915566097
 20
-15692.7078759
 10
-47.5816285051
 20
-15692.7701153
 10
-43.2716925355
 20
-15692.8316091
 10
-38.9617487011
 20
-15692.8923573
 10
-34.6517970019
 20
-15692.9523598
 10
-30.3418374377
 20
-15693.0116167
 10
-26.0318700088
 20
-15693.070128
 10
-21.721894715
 20
-15693.1278936
 10
-17.4119115564
 20
-15693.1849137
 10
-13.101920533
 20
-15693.2411881
 10
-8.79192164476
 20
-15693.2967169
 10
-4.48191489178
 20
-15693.3515001
 10
-0.17190027403
 20
-15693.4055377
 10
4.13812220849
 20
-15693.4588296
 10
8.44815255577
 20
-15693.511376
 10
12.7581907678
 20
-15693.5631767
 10
17.0682368446
 20
-15693.6142318
 10
21.3782907861
 20
-15693.6645413
 10
25.6883525923
 20
-15693.7141051
 10
29.9984222633
 20
-15693.7629234
 10
34.308499799
 20
-15693.8109961
 10
38.6185851995
 20
-15693.8583231
 10
42.9286784646
 20
-15693.9049045
 10
47.2387795945
 20
-15693.9507403
 10
47.2387795945
 20
-15693.9507403
 10
51.5488885891
 20
-15693.9958305
 10
55.8590054485
 20
-15694.0401751
 10
60.1691301725
 20
-15694.0837741
 10
64.4792627613
 20
-15694.1266275
 10
68.7894032148
 20
-15694.1687352
 10
73.099551533
 20
-15694.2100974
 10
77.409707716
 20
-15694.2507139
 10
81.7198717637
 20
-15694.2905848
 10
86.0300436762
 20
-15694.3297101
 10
90.3402234534
 20
-15694.3680898
 10
94.6504110954
 20
-15694.4057238
 10
98.9606066021
 20
-15694.4426123
 10
103.270809974
 20
-15694.4787551
 10
107.58102121
 20
-15694.5141523
 10
111.891240311
 20
-15694.5488039
 10
116.201467277
 20
-15694.5827099
 10
120.511702108
 20
-15694.6158703
 10
124.821944803
 20
-15694.648285
 10
129.132195364
 20
-15694.6799541
 10
133.442453789
 20
-15694.7108776
 10
137.752720079
 20
-15694.7410554
 10
142.062994234
 20
-15694.7704877
 10
146.373276254
 20
-15694.7991743
 10
150.683566138
 20
-15694.8271152
 10
154.993863888
 20
-15694.8543106
 10
159.304169503
 20
-15694.8807603
 10
163.614482982
 20
-15694.9064644
 10
167.924804327
 20
-15694.9314228
 10
172.235133536
 20
-15694.9556356
  0
LINE
  5
7d
330
1F
100
AcDbEntity
  8
Mirrors
100
AcDbLine
 10
171.226432245
 20
-15790.5852197
 30
0.0
  11
-78.8517423525
 21
-15796.6780719
 31
0.0
  0
LINE
  5
7e
330
1F
100
AcDbEntity
  8
Mirrors
100
AcDbLine
 10
3026507.10965
 20
93.6192715165
 30
0.0
  11
3026656.62969
 21
93.6192715165
 31
0.0
  0
LINE
  5
7f
330
1F
100
AcDbEntity
  8
Mirrors
100
AcDbLine
 10
3026657.58962
 20
-126.380728483
 30
0.0
  11
3026507.10965
 21
-126.380728483
 31
0.0
  0
LINE
  5
80
330
1F
100
AcDbEntity
  8
Mirrors
100
AcDbLine
 10
3026522.10965
 20
-126.380728483
 30
0.0
  11
3026522.10965
 21
93.6192715165
 31
0.0
  0
LWPOLYLINE
  5
81
330
1F
100
AcDbEntity
  8
Mirrors
100
AcDbPolyline
 90
60
 70
0
43
0.0
 10
3026507.10965
 20
-126.380728483
 10
3026507.10987
 20
-122.587625035
 10
3026507.11008
 20
-118.794521587
 10
3026507.11028
 20
-115.001418139
 10
3026507.11047
 20
-111.20831469
 10
3026507.11066
 20
-107.415211242
 10
3026507.11084
 20
-103.622107794
 10
3026507.11101
 20
-99.8290043455
 10
3026507.11117
 20
-96.0359008973
 10
3026507.11132
 20
-92.242797449
 10
3026507.11147
 20
-88.4496940007
 10
3026507.11161
 20
-84.6565905524
 10
3026507.11174
 20
-80.8634871042
 10
3026507.11187
 20
-77.0703836559
 10
3026507.11199
 20
-73.2772802076
 10
3026507.1121
 20
-69.4841767593
 10
3026507.1122
 20
-65.6910733111
 10
3026507.11229
 20
-61.8979698628
 10
3026507.11238
 20
-58.1048664145
 10
3026507.11246
 20
-54.3117629662
 10
3026507.11253
 20
-50.5186595179
 10
3026507.1126
 20
-46.7255560697
 10
3026507.11265
 20
-42.9324526214
 10
3026507.1127
 20
-39.1393491731
 10
3026507.11274
 20
-35.3462457248
 10
3026507.11278
 20
-31.5531422766
 10
3026507.1128
 20
-27.7600388283
 10
3026507.11282
 20
-23.96693538
 10
3026507.11283
 20
-20.1738319317
 10
3026507.11284
 20
-16.3807284835
 10
3026507.11284
 20
-16.3807284835
 10
3026507.11283
 20
-12.5876250352
 10
3026507.11282
 20
-8.79452158691
 10
3026507.1128
 20
-5.00141813864
 10
3026507.11278
 20
-1.20831469036
 10
3026507.11274
 20
2.58478875792
 10
3026507.1127
 20
6.37789220619
 10
3026507.11265
 20
10.1709956545
 10
3026507.1126
 20
13.9640991027
 10
3026507.11253
 20
17.757202551
 10
3026507.11246
 20
21.5503059993
 10
3026507.11238
 20
25.3434094476
 10
3026507.11229
 20
29.1365128958
 10
3026507.1122
 20
32.9296163441
 10
3026507.1121
 20
36.7227197924
 10
3026507.11199
 20
40.5158232407
 10
3026507.11187
 20
44.3089266889
 10
3026507.11174
 20
48.1020301372
 10
3026507.11161
 20
51.8951335855
 10
3026507.11147
 20
55.6882370338
 10
3026507.11132
 20
59.4813404821
 10
3026507.11117
 20
63.2744439303
 10
3026507.11101
 20
67.0675473786
 10
3026507.11084
 20
70.8606508269
 10
3026507.11066
 20
74.6537542752
 10
3026507.11047
 20
78.4468577234
 10
3026507.11028
 20
82.2399611717
 10
3026507.11008
 20
86.03306462
 10
3026507.10987
 20
89.8261680683
 10
3026507.10965
 20
93.6192715165
  0
LINE
  5
82
330
1F
100
AcDbEntity
  8
Mirrors
100
AcDbLine
 10
3026656.62969
 20
93.6192715165
 30
0.0
  11
3026657.58962
 21
-126.380728483
 31
0.0
  0
LINE
  5
83
330
1F
100
AcDbEntity
  8
Mirrors
100
AcDbLine
 10
-117.590557088
 20
3023221.97254
 30
0.0
  11
-117.590557088
 21
3023371.49258
 31
0.0
  0
LINE
  5
84
330
1F
100
AcDbEntity
  8
Mirrors
100
AcDbLine
 10
102.409442912
 20
3023372.45251
 30
0.0
  11
102.409442912
 21
3023221.97254
 31
0.0
  0
LINE
  5
85
330
1F
100
AcDbEntity
  8
Mirrors
100
AcDbLine
 10
102.409442912
 20
3023236.97254
 30
0.0
  11
-117.590557088
 21
3023236.97254
 31
0.0
  0
LWPOLYLINE
  5
86
330
1F
100
AcDbEntity
  8
Mirrors
100
AcDbPolyline
 90
60
 70
0
43
0.0
 10
102.409442912
 20
3023221.97254
 10
98.6163394635
 20
3023221.97276
 10
94.8232360153
 20
3023221.97297
 10
91.030132567
 20
3023221.97317
 10
87.2370291187
 20
3023221.97336
 10
83.4439256704
 20
3023221.97355
 10
79.6508222222
 20
3023221.97373
 10
75.8577187739
 20
3023221.9739
 10
72.0646153256
 20
3023221.97406
 10
68.2715118773
 20
3023221.97421
 10
64.4784084291
 20
3023221.97436
 10
60.6853049808
 20
3023221.9745
 10
56.8922015325
 20
3023221.97463
 10
53.0990980842
 20
3023221.97476
 10
49.305994636
 20
3023221.97488
 10
45.5128911877
 20
3023221.97499
 10
41.7197877394
 20
3023221.97509
 10
37.9266842911
 20
3023221.97518
 10
34.1335808429
 20
3023221.97527
 10
30.3404773946
 20
3023221.97535
 10
26.5473739463
 20
3023221.97542
 10
22.754270498
 20
3023221.97549
 10
18.9611670498
 20
3023221.97554
 10
15.1680636015
 20
3023221.97559
 10
11.3749601532
 20
3023221.97563
 10
7.58185670492
 20
3023221.97567
 10
3.78875325665
 20
3023221.97569
 10
-0.00435019162676
 20
3023221.97571
 10
-3.7974536399
 20
3023221.97572
 10
-7.59055708818
 20
3023221.97573
 10
-7.59055708818
 20
3023221.97573
 10
-11.3836605365
 20
3023221.97572
 10
-15.1767639847
 20
3023221.97571
 10
-18.969867433
 20
3023221.97569
 10
-22.7629708813
 20
3023221.97567
 10
-26.5560743296
 20
3023221.97563
 10
-30.3491777778
 20
3023221.97559
 10
-34.1422812261
 20
3023221.97554
 10
-37.9353846744
 20
3023221.97549
 10
-41.7284881227
 20
3023221.97542
 10
-45.5215915709
 20
3023221.97535
 10
-49.3146950192
 20
3023221.97527
 10
-53.1077984675
 20
3023221.97518
 10
-56.9009019158
 20
3023221.97509
 10
-60.694005364
 20
3023221.97499
 10
-64.4871088123
 20
3023221.97488
 10
-68.2802122606
 20
3023221.97476
 10
-72.0733157089
 20
3023221.97463
 10
-75.8664191571
 20
3023221.9745
 10
-79.6595226054
 20
3023221.97436
 10
-83.4526260537
 20
3023221.97421
 10
-87.245729502
 20
3023221.97406
 10
-91.0388329502
 20
3023221.9739
 10
-94.8319363985
 20
3023221.97373
 10
-98.6250398468
 20
3023221.97355
 10
-102.418143295
 20
3023221.97336
 10
-106.211246743
 20
3023221.97317
 10
-110.004350192
 20
3023221.97297
 10
-113.79745364
 20
3023221.97276
 10
-117.590557088
 20
3023221.97254
  0
LINE
  5
87
330
1F
100
AcDbEntity
  8
Mirrors
100
AcDbLine
 10
-117.590557088
 20
3023371.49258
 30
0.0
  11
102.409442912
 21
3023372.45251
 31
0.0
  0
LINE
  5
88
330
1F
100
AcDbEntity
  8
Mirrors
100
AcDbLine
 10
134.380236173
 20
134.320334
 30
0.0
  11
191.123712967
 21
77.5515515999
 31
0.0
  0
LINE
  5
89
330
1F
100
AcDbEntity
  8
Mirrors
100
AcDbLine
 10
-78.0118527562
 20
-190.713855746
 30
0.0
  11
-134.380236173
 21
-134.320334
 31
0.0
  0
LINE
  5
8a
330
1F
100
AcDbEntity
  8
Mirrors
100
AcDbLine
 10
-128.724643163
 20
-139.978449208
 30
0.0
  11
140.035829184
 21
128.662218793
 31
0.0
  0
LINE
  5
8b
330
1F
100
AcDbEntity
  8
Mirrors
100
AcDbLine
 10
-134.380236173
 20
-134.320334
 30
0.0
  11
134.380236173
 21
134.320334
 31
0.0
  0
LINE
  5
8c
330
1F
100
AcDbEntity
  8
Mirrors
100
AcDbLine
 10
191.123712967
 20
77.5515515999
 30
0.0
  11
-78.0118527562
 21
-190.713855746
 31
0.0
  0
LINE
  5
8d
330
1F
100
AcDbEntity
  8
Mirrors
100
AcDbLine
 10
390.280099826
 20
-19326.7088432
 30
0.0
  11
390.07113176
 21
-19422.3435187
 31
0.0
  0
LINE
  5
8e
330
1F
100
AcDbEntity
  8
Mirrors
100
AcDbLine
 10
140.052652572
 20
-19430.5274251
 30
0.0
  11
140.280696638
 21
-19326.1625781
 31
0.0
  0
LINE
  5
8f
330
1F
100
AcDbEntity
  8
Mirrors
100
AcDbLine
 10
140.258846032
 20
-19336.1625542
 30
0.0
  11
390.25824922
 21
-19336.7088194
 31
0.0
  0
LWPOLYLINE
  5
90
330
1F
100
AcDbEntity
  8
Mirrors
100
AcDbPolyline
 90
60
 70
0
43
0.0
 10
140.280696638
 20
-19326.1625781
 10
144.591028651
 20
-19326.1731522
 10
148.901360752
 20
-19326.1836858
 10
153.211692941
 20
-19326.1941789
 10
157.522025219
 20
-19326.2046314
 10
161.832357586
 20
-19326.2150433
 10
166.142690041
 20
-19326.2254147
 10
170.453022585
 20
-19326.2357455
 10
174.763355218
 20
-19326.2460358
 10
179.073687939
 20
-19326.2562855
 10
183.384020748
 20
-19326.2664947
 10
187.694353647
 20
-19326.2766633
 10
192.004686634
 20
-19326.2867914
 10
196.315019709
 20
-19326.2968789
 10
200.625352874
 20
-19326.3069259
 10
204.935686126
 20
-19326.3169323
 10
209.246019468
 20
-19326.3268981
 10
213.556352898
 20
-19326.3368234
 10
217.866686417
 20
-19326.3467081
 10
222.177020024
 20
-19326.3565523
 10
226.48735372
 20
-19326.366356
 10
230.797687504
 20
-19326.376119
 10
235.108021377
 20
-19326.3858415
 10
239.418355339
 20
-19326.3955235
 10
243.72868939
 20
-19326.4051649
 10
248.039023528
 20
-19326.4147658
 10
252.349357756
 20
-19326.4243261
 10
256.659692072
 20
-19326.4338458
 10
260.970026477
 20
-19326.443325
 10
265.28036097
 20
-19326.4527637
 10
265.28036097
 20
-19326.4527637
 10
269.590695552
 20
-19326.4621618
 10
273.901030223
 20
-19326.4715193
 10
278.211364982
 20
-19326.4808363
 10
282.52169983
 20
-19326.4901127
 10
286.832034767
 20
-19326.4993486
 10
291.142369792
 20
-19326.5085439
 10
295.452704906
 20
-19326.5176987
 10
299.763040108
 20
-19326.5268129
 10
304.073375399
 20
-19326.5358865
 10
308.383710778
 20
-19326.5449196
 10
312.694046247
 20
-19326.5539122
 10
317.004381803
 20
-19326.5628642
 10
321.314717449
 20
-19326.5717756
 10
325.625053183
 20
-19326.5806465
 10
329.935389005
 20
-19326.5894768
 10
334.245724917
 20
-19326.5982666
 10
338.556060916
 20
-19326.6070158
 10
342.866397005
 20
-19326.6157245
 10
347.176733182
 20
-19326.6243926
 10
351.487069448
 20
-19326.6330201
 10
355.797405802
 20
-19326.6416071
 10
360.107742245
 20
-19326.6501536
 10
364.418078776
 20
-19326.6586595
 10
368.728415397
 20
-19326.6671248
 10
373.038752105
 20
-19326.6755496
 10
377.349088903
 20
-19326.6839339
 10
381.659425789
 20
-19326.6922775
 10
385.969762763
 20
-19326.7005807
 10
390.280099826
 20
-19326.7088432
  0
LINE
  5
91
330
1F
100
AcDbEntity
  8
Mirrors
100
AcDbLine
 10
390.07113176
 20
-19422.3435187
 30
0.0
  11
140.052652572
 21
-19430.5274251
 31
0.0
  0
LINE
  5
92
330
1F
100
AcDbEntity
  8
Mirrors
100
AcDbLine
 10
172.532692709
 20
-4581.10373406
 30
0.0
  11
173.714177048
 21
-4485.47612862
 31
0.0
  0
LINE
  5
93
330
1F
100
AcDbEntity
  8
Mirrors
100
AcDbLine
 10
423.802952085
 20
-4479.83513056
 30
0.0
  11
422.51361397
 21
-4584.19226212
 31
0.0
  0
LINE
  5
94
330
1F
100
AcDbEntity
  8
Mirrors
100
AcDbLine
 10
422.637155093
 20
-4574.19302527
 30
0.0
  11
172.656233832
 21
-4571.10449721
 31
0.0
  0
LWPOLYLINE
  5
95
330
1F
100
AcDbEntity
  8
Mirrors
100
AcDbPolyline
 90
60
 70
0
43
0.0
 10
422.51361397
 20
-4584.19226212
 10
418.201406358
 20
-4584.3164069
 10
413.889275772
 20
-4584.43431728
 10
409.5772222
 20
-4584.54599434
 10
405.265245627
 20
-4584.65143912
 10
400.953346042
 20
-4584.75065261
 10
396.641523434
 20
-4584.84363577
 10
392.32977779
 20
-4584.9303895
 10
388.018109101
 20
-4585.01091469
 10
383.706517355
 20
-4585.08521218
 10
379.395002543
 20
-4585.15328275
 10
375.083564655
 20
-4585.21512718
 10
370.772203682
 20
-4585.27074617
 10
366.460919617
 20
-4585.32014042
 10
362.149712451
 20
-4585.36331056
 10
357.838582177
 20
-4585.4002572
 10
353.527528788
 20
-4585.4309809
 10
349.216552277
 20
-4585.45548218
 10
344.905652638
 20
-4585.47376153
 10
340.594829866
 20
-4585.4858194
 10
336.284083955
 20
-4585.4916562
 10
331.973414902
 20
-4585.49127229
 10
327.662822702
 20
-4585.48466801
 10
323.352307351
 20
-4585.47184365
 10
319.041868847
 20
-4585.45279945
 10
314.731507186
 20
-4585.42753564
 10
310.421222367
 20
-4585.39605239
 10
306.111014387
 20
-4585.35834983
 10
301.800883247
 20
-4585.31442806
 10
297.490828944
 20
-4585.26428714
 10
297.490828944
 20
-4585.26428714
 10
293.180851479
 20
-4585.20792709
 10
288.870950852
 20
-4585.14534789
 10
284.561127064
 20
-4585.07654949
 10
280.251380115
 20
-4585.00153177
 10
275.941710008
 20
-4584.92029461
 10
271.632116745
 20
-4584.83283784
 10
267.322600328
 20
-4584.73916124
 10
263.013160761
 20
-4584.63926455
 10
258.703798047
 20
-4584.53314749
 10
254.394512189
 20
-4584.42080973
 10
250.085303194
 20
-4584.30225089
 10
245.776171065
 20
-4584.17747057
 10
241.467115809
 20
-4584.04646832
 10
237.158137431
 20
-4583.90924365
 10
232.849235937
 20
-4583.76579605
 10
228.540411336
 20
-4583.61612494
 10
224.231663633
 20
-4583.46022972
 10
219.922992838
 20
-4583.29810976
 10
215.614398958
 20
-4583.12976436
 10
211.305882002
 20
-4582.95519282
 10
206.997441981
 20
-4582.77439437
 10
202.689078903
 20
-4582.58736821
 10
198.380792779
 20
-4582.39411351
 10
194.07258362
 20
-4582.19462939
 10
189.764451437
 20
-4581.98891493
 10
185.456396242
 20
-4581.77696918
 10
181.148418047
 20
-4581.55879115
 10
176.840516865
 20
-4581.3343798
 10
172.532692709
 20
-4581.10373406
  0
LINE
  5
96
330
1F
100
AcDbEntity
  8
Mirrors
100
AcDbLine
 10
173.714177048
 20
-4485.47612862
 30
0.0
  11
423.802952085
 21
-4479.83513056
 31
0.0
  0
LINE
  5
97
330
1F
100
AcDbEntity
  8
Mirrors
100
AcDbLine
 10
-19461.7355526
 20
101.717441151
 30
0.0
  11
-19557.3700711
 21
101.4459564
 31
0.0
  0
LINE
  5
98
330
1F
100
AcDbEntity
  8
Mirrors
100
AcDbLine
 10
-19566.8099188
 20
351.420166136
 30
0.0
  11
-19462.4452432
 21
351.716433827
 31
0.0
  0
LINE
  5
99
330
1F
100
AcDbEntity
  8
Mirrors
100
AcDbLine
 10
-19472.4452029
 20
351.688046205
 30
0.0
  11
-19471.7355123
 21
101.689053529
 31
0.0
  0
LWPOLYLINE
  5
9a
330
1F
100
AcDbEntity
  8
Mirrors
100
AcDbPolyline
 90
60
 70
0
43
0.0
 10
-19462.4452432
 20
351.716433827
 10
-19462.4341629
 20
347.406103086
 10
-19462.4230421
 20
343.09577246
 10
-19462.4118808
 20
338.78544195
 10
-19462.4006788
 20
334.475111554
 10
-19462.3894364
 20
330.164781274
 10
-19462.3781533
 20
325.854451108
 10
-19462.3668298
 20
321.544121058
 10
-19462.3554656
 20
317.233791123
 10
-19462.344061
 20
312.923461303
 10
-19462.3326157
 20
308.613131598
 10
-19462.3211299
 20
304.302802008
 10
-19462.3096036
 20
299.992472534
 10
-19462.2980367
 20
295.682143174
 10
-19462.2864292
 20
291.37181393
 10
-19462.2747812
 20
287.061484801
 10
-19462.2630926
 20
282.751155787
 10
-19462.2513635
 20
278.440826888
 10
-19462.2395939
 20
274.130498104
 10
-19462.2277836
 20
269.820169435
 10
-19462.2159329
 20
265.509840881
 10
-19462.2040415
 20
261.199512443
 10
-19462.1921096
 20
256.88918412
 10
-19462.1801372
 20
252.578855911
 10
-19462.1681242
 20
248.268527818
 10
-19462.1560706
 20
243.95819984
 10
-19462.1439765
 20
239.647871977
 10
-19462.1318419
 20
235.33754423
 10
-19462.1196667
 20
231.027216597
 10
-19462.1074509
 20
226.716889079
 10
-19462.1074509
 20
226.716889079
 10
-19462.0951946
 20
222.406561677
 10
-19462.0828977
 20
218.09623439
 10
-19462.0705603
 20
213.785907218
 10
-19462.0581823
 20
209.475580161
 10
-19462.0457638
 20
205.165253219
 10
-19462.0333047
 20
200.854926392
 10
-19462.020805
 20
196.54459968
 10
-19462.0082648
 20
192.234273084
 10
-19461.9956841
 20
187.923946602
 10
-19461.9830628
 20
183.613620236
 10
-19461.9704009
 20
179.303293985
 10
-19461.9576985
 20
174.992967849
 10
-19461.9449555
 20
170.682641828
 10
-19461.932172
 20
166.372315922
 10
-19461.9193479
 20
162.061990132
 10
-19461.9064833
 20
157.751664456
 10
-19461.8935781
 20
153.441338896
 10
-19461.8806323
 20
149.131013451
 10
-19461.867646
 20
144.82068812
 10
-19461.8546192
 20
140.510362905
 10
-19461.8415518
 20
136.200037805
 10
-19461.8284438
 20
131.889712821
 10
-19461.8152953
 20
127.579387951
 10
-19461.8021063
 20
123.269063196
 10
-19461.7888766
 20
118.958738557
 10
-19461.7756065
 20
114.648414033
 10
-19461.7622957
 20
110.338089624
 10
-19461.7489445
 20
106.02776533
 10
-19461.7355526
 20
101.717441151
  0
LINE
  5
9b
330
1F
100
AcDbEntity
  8
Mirrors
100
AcDbLine
 10
-19557.3700711
 20
101.4459564
 30
0.0
  11
-19566.8099188
 21
351.420166136
 31
0.0
  0
LINE
  5
9c
330
1F
100
AcDbEntity
  8
Mirrors
100
AcDbLine
 10
-15762.0579045
 20
-112.773928553
 30
0.0
  11
-15857.6868114
 21
-113.844909033
 31
0.0
  0
LINE
  5
9d
330
1F
100
AcDbEntity
  8
Mirrors
100
AcDbLine
 10
-15869.2161153
 20
136.041648048
 30
0.0
  11
-15764.8575635
 21
137.210394774
 31
0.0
  0
LINE
  5
9e
330
1F
100
AcDbEntity
  8
Mirrors
100
AcDbLine
 10
-15774.8569364
 20
137.098408414
 30
0.0
  11
-15772.0572774
 21
-112.885914913
 31
0.0
  0
LWPOLYLINE
  5
9f
330
1F
100
AcDbEntity
  8
Mirrors
100
AcDbPolyline
 90
60
 70
0
43
0.0
 10
-15764.8575635
 20
137.210394774
 10
-15764.8305436
 20
132.900082248
 10
-15764.802778
 20
128.589778072
 10
-15764.7742668
 20
124.279482246
 10
-15764.74501
 20
119.969194771
 10
-15764.7150076
 20
115.658915647
 10
-15764.6842595
 20
111.348644873
 10
-15764.6527658
 20
107.038382449
 10
-15764.6205265
 20
102.728128376
 10
-15764.5875416
 20
98.4178826537
 10
-15764.553811
 20
94.1076452817
 10
-15764.5193348
 20
89.7974162601
 10
-15764.484113
 20
85.4871955889
 10
-15764.4481456
 20
81.1769832682
 10
-15764.4114326
 20
76.8667792978
 10
-15764.3739739
 20
72.5565836779
 10
-15764.3357697
 20
68.2463964083
 10
-15764.2968198
 20
63.9362174891
 10
-15764.2571243
 20
59.6260469203
 10
-15764.2166832
 20
55.3158847018
 10
-15764.1754965
 20
51.0057308337
 10
-15764.1335642
 20
46.6955853158
 10
-15764.0908863
 20
42.3854481484
 10
-15764.0474627
 20
38.0753193312
 10
-15764.0032936
 20
33.7651988644
 10
-15763.9583788
 20
29.4550867479
 10
-15763.9127185
 20
25.1449829817
 10
-15763.8663125
 20
20.8348875658
 10
-15763.8191609
 20
16.5248005002
 10
-15763.7712638
 20
12.2147217849
 10
-15763.7712638
 20
12.2147217849
 10
-15763.722621
 20
7.90465141993
 10
-15763.6732326
 20
3.59458940526
 10
-15763.6230986
 20
-0.715464259101
 10
-15763.572219
 20
-5.02550957315
 10
-15763.5205938
 20
-9.33554653689
 10
-15763.4682229
 20
-13.6455751503
 10
-15763.4151065
 20
-17.9555954134
 10
-15763.3612445
 20
-22.2656073262
 10
-15763.3066368
 20
-26.5756108886
 10
-15763.2512836
 20
-30.8856061007
 10
-15763.1951847
 20
-35.1955929625
 10
-15763.1383402
 20
-39.5055714739
 10
-15763.0807501
 20
-43.815541635
 10
-15763.0224144
 20
-48.1255034457
 10
-15762.9633331
 20
-52.435456906
 10
-15762.9035061
 20
-56.7454020159
 10
-15762.8429336
 20
-61.0553387754
 10
-15762.7816154
 20
-65.3652671845
 10
-15762.7195516
 20
-69.6751872432
 10
-15762.6567422
 20
-73.9850989514
 10
-15762.5931872
 20
-78.2950023092
 10
-15762.5288866
 20
-82.6048973165
 10
-15762.4638403
 20
-86.9147839733
 10
-15762.3980484
 20
-91.2246622796
 10
-15762.3315109
 20
-95.5345322354
 10
-15762.2642277
 20
-99.8443938406
 10
-15762.196199
 20
-104.154247095
 10
-15762.1274245
 20
-108.464091999
 10
-15762.0579045
 20
-112.773928553
  0
LINE
  5
a0
330
1F
100
AcDbEntity
  8
Mirrors
100
AcDbLine
 10
-15857.6868114
 20
-113.844909033
 30
0.0
  11
-15869.2161153
 21
136.041648048
 31
0.0
  0
LINE
  5
a1
330
1F
100
AcDbEntity
  8
Mirrors
100
AcDbLine
 10
-4699.76391156
 20
393.643713251
 30
0.0
  11
-4604.13709585
 21
394.887475452
 31
0.0
  0
LINE
  5
a2
330
1F
100
AcDbEntity
  8
Mirrors
100
AcDbLine
 10
-4592.15631266
 20
145.022157544
 30
0.0
  11
-4696.51258241
 21
143.664856427
 31
0.0
  0
LINE
  5
a3
330
1F
100
AcDbEntity
  8
Mirrors
100
AcDbLine
 10
-4686.51342814
 20
143.794909593
 30
0.0
  11
-4689.76475728
 21
393.773766417
 31
0.0
  0
LWPOLYLINE
  5
a4
330
1F
100
AcDbEntity
  8
Mirrors
100
AcDbPolyline
 90
60
 70
0
43
0.0
 10
-4696.51258241
 20
143.664856427
 10
-4696.74088011
 20
147.972596488
 10
-4696.96312515
 20
152.280415273
 10
-4697.1793185
 20
156.588312768
 10
-4697.3894611
 20
160.896288961
 10
-4697.59355388
 20
165.204343842
 10
-4697.7915977
 20
169.512477397
 10
-4697.9835934
 20
173.820689617
 10
-4698.16954178
 20
178.128980491
 10
-4698.34944361
 20
182.437350009
 10
-4698.52329962
 20
186.745798161
 10
-4698.69111051
 20
191.054324939
 10
-4698.85287692
 20
195.362930333
 10
-4699.0085995
 20
199.671614336
 10
-4699.15827882
 20
203.980376941
 10
-4699.30191543
 20
208.289218139
 10
-4699.43950986
 20
212.598137925
 10
-4699.57106258
 20
216.907136291
 10
-4699.69657404
 20
221.216213233
 10
-4699.81604464
 20
225.525368744
 10
-4699.92947477
 20
229.834602821
 10
-4700.03686475
 20
234.143915458
 10
-4700.1382149
 20
238.453306651
 10
-4700.23352547
 20
242.762776398
 10
-4700.3227967
 20
247.072324696
 10
-4700.40602879
 20
251.38195154
 10
-4700.48322189
 20
255.691656931
 10
-4700.55437613
 20
260.001440865
 10
-4700.6194916
 20
264.311303342
 10
-4700.67856835
 20
268.621244361
 10
-4700.67856835
 20
268.621244361
 10
-4700.7316064
 20
272.931263922
 10
-4700.77860573
 20
277.241362025
 10
-4700.81956628
 20
281.551538671
 10
-4700.85448798
 20
285.861793861
 10
-4700.88337069
 20
290.172127596
 10
-4700.90621426
 20
294.482539879
 10
-4700.92301848
 20
298.793030712
 10
-4700.93378314
 20
303.103600099
 10
-4700.93850795
 20
307.414248042
 10
-4700.93719263
 20
311.724974545
 10
-4700.92983682
 20
316.035779614
 10
-4700.91644016
 20
320.346663252
 10
-4700.89700224
 20
324.657625466
 10
-4700.87152261
 20
328.968666261
 10
-4700.84000079
 20
333.279785643
 10
-4700.80243627
 20
337.590983618
 10
-4700.75882849
 20
341.902260195
 10
-4700.70917687
 20
346.213615381
 10
-4700.65348079
 20
350.525049183
 10
-4700.59173958
 20
354.836561611
 10
-4700.52395254
 20
359.148152673
 10
-4700.45011896
 20
363.45982238
 10
-4700.37023806
 20
367.77157074
 10
-4700.28430904
 20
372.083397764
 10
-4700.19233106
 20
376.395303464
 10
-4700.09430325
 20
380.707287851
 10
-4699.9902247
 20
385.019350936
 10
-4699.88009446
 20
389.331492731
 10
-4699.76391156
 20
393.643713251
  0
LINE
  5
a5
330
1F
100
AcDbEntity
  8
Mirrors
100
AcDbLine
 10
-4604.13709585
 20
394.887475452
 30
0.0
  11
-4592.15631266
 21
145.022157544
 31
0.0
  0
LINE
  5
a6
330
1F
100
AcDbEntity
  8
Mirrors
100
AcDbLine
 10
26507.1160223
 20
-126.380728491
 30
0.0
  11
26357.0680258
 21
-126.380728491
 31
0.0
  0
LINE
  5
a7
330
1F
100
AcDbEntity
  8
Mirrors
100
AcDbLine
 10
26357.1640189
 20
93.6192715095
 30
0.0
  11
26507.1160223
 21
93.6192715095
 31
0.0
  0
LINE
  5
a8
330
1F
100
AcDbEntity
  8
Mirrors
100
AcDbLine
 10
26492.1160223
 20
93.6192715095
 30
0.0
  11
26492.1160223
 21
-126.380728491
 31
0.0
  0
LWPOLYLINE
  5
a9
330
1F
100
AcDbEntity
  8
Mirrors
100
AcDbPolyline
 90
60
 70
0
43
0.0
 10
26507.1160223
 20
93.6192715095
 10
26507.1158065
 20
89.8261680612
 10
26507.1155983
 20
86.0330646129
 10
26507.1153976
 20
82.2399611646
 10
26507.1152045
 20
78.4468577163
 10
26507.115019
 20
74.6537542681
 10
26507.114841
 20
70.8606508198
 10
26507.1146706
 20
67.0675473715
 10
26507.1145078
 20
63.2744439232
 10
26507.1143526
 20
59.481340475
 10
26507.1142049
 20
55.6882370267
 10
26507.1140648
 20
51.8951335784
 10
26507.1139323
 20
48.1020301301
 10
26507.1138074
 20
44.3089266819
 10
26507.11369
 20
40.5158232336
 10
26507.1135802
 20
36.7227197853
 10
26507.113478
 20
32.929616337
 10
26507.1133833
 20
29.1365128888
 10
26507.1132962
 20
25.3434094405
 10
26507.1132167
 20
21.5503059922
 10
26507.1131448
 20
17.7572025439
 10
26507.1130804
 20
13.9640990957
 10
26507.1130236
 20
10.1709956474
 10
26507.1129744
 20
6.37789219911
 10
26507.1129328
 20
2.58478875083
 10
26507.1128987
 20
-1.20831469744
 10
26507.1128722
 20
-5.00141814572
 10
26507.1128532
 20
-8.794521594
 10
26507.1128419
 20
-12.5876250423
 10
26507.1128381
 20
-16.3807284905
 10
26507.1128381
 20
-16.3807284905
 10
26507.1128419
 20
-20.1738319388
 10
26507.1128532
 20
-23.9669353871
 10
26507.1128722
 20
-27.7600388354
 10
26507.1128987
 20
-31.5531422837
 10
26507.1129328
 20
-35.3462457319
 10
26507.1129744
 20
-39.1393491802
 10
26507.1130236
 20
-42.9324526285
 10
26507.1130804
 20
-46.7255560768
 10
26507.1131448
 20
-50.518659525
 10
26507.1132167
 20
-54.3117629733
 10
26507.1132962
 20
-58.1048664216
 10
26507.1133833
 20
-61.8979698699
 10
26507.113478
 20
-65.6910733181
 10
26507.1135802
 20
-69.4841767664
 10
26507.11369
 20
-73.2772802147
 10
26507.1138074
 20
-77.070383663
 10
26507.1139323
 20
-80.8634871112
 10
26507.1140648
 20
-84.6565905595
 10
26507.1142049
 20
-88.4496940078
 10
26507.1143526
 20
-92.2427974561
 10
26507.1145078
 20
-96.0359009043
 10
26507.1146706
 20
-99.8290043526
 10
26507.114841
 20
-103.622107801
 10
26507.115019
 20
-107.415211249
 10
26507.1152045
 20
-111.208314697
 10
26507.1153976
 20
-115.001418146
 10
26507.1155983
 20
-118.794521594
 10
26507.1158065
 20
-122.587625042
 10
26507.1160223
 20
-126.380728491
  0
LINE
  5
aa
330
1F
100
AcDbEntity
  8
Mirrors
100
AcDbLine
 10
26357.0680258
 20
-126.380728491
 30
0.0
  11
26357.1640189
 21
93.6192715095
 31
0.0
  0
LINE
  5
ab
330
1F
100
AcDbEntity
  8
Mirrors
100
AcDbLine
 10
102.409442927
 20
23221.9789127
 30
0.0
  11
102.409442927
 21
23071.9309161
 31
0.0
  0
LINE
  5
ac
330
1F
100
AcDbEntity
  8
Mirrors
100
AcDbLine
 10
-117.590557073
 20
23072.0269093
 30
0.0
  11
-117.590557073
 21
23221.9789127
 31
0.0
  0
LINE
  5
ad
330
1F
100
AcDbEntity
  8
Mirrors
100
AcDbLine
 10
-117.590557073
 20
23206.9789127
 30
0.0
  11
102.409442927
 21
23206.9789127
 31
0.0
  0
LWPOLYLINE
  5
ae
330
1F
100
AcDbEntity
  8
Mirrors
100
AcDbPolyline
 90
60
 70
0
43
0.0
 10
-117.590557073
 20
23221.9789127
 10
-113.797453625
 20
23221.9786969
 10
-110.004350177
 20
23221.9784886
 10
-106.211246728
 20
23221.978288
 10
-102.41814328
 20
23221.9780949
 10
-98.6250398319
 20
23221.9779093
 10
-94.8319363836
 20
23221.9777314
 10
-91.0388329354
 20
23221.977561
 10
-87.2457294871
 20
23221.9773982
 10
-83.4526260388
 20
23221.977243
 10
-79.6595225905
 20
23221.9770953
 10
-75.8664191423
 20
23221.9769552
 10
-72.073315694
 20
23221.9768227
 10
-68.2802122457
 20
23221.9766978
 10
-64.4871087974
 20
23221.9765804
 10
-60.6940053491
 20
23221.9764706
 10
-56.9009019009
 20
23221.9763684
 10
-53.1077984526
 20
23221.9762737
 10
-49.3146950043
 20
23221.9761866
 10
-45.521591556
 20
23221.9761071
 10
-41.7284881078
 20
23221.9760352
 10
-37.9353846595
 20
23221.9759708
 10
-34.1422812112
 20
23221.975914
 10
-30.3491777629
 20
23221.9758648
 10
-26.5560743147
 20
23221.9758231
 10
-22.7629708664
 20
23221.9757891
 10
-18.9698674181
 20
23221.9757626
 10
-15.1767639698
 20
23221.9757436
 10
-11.3836605216
 20
23221.9757323
 10
-7.59055707329
 20
23221.9757285
 10
-7.59055707329
 20
23221.9757285
 10
-3.79745362501
 20
23221.9757323
 10
-0.00435017673398
 20
23221.9757436
 10
3.78875327154
 20
23221.9757626
 10
7.58185671982
 20
23221.9757891
 10
11.3749601681
 20
23221.9758231
 10
15.1680636164
 20
23221.9758648
 10
18.9611670646
 20
23221.975914
 10
22.7542705129
 20
23221.9759708
 10
26.5473739612
 20
23221.9760352
 10
30.3404774095
 20
23221.9761071
 10
34.1335808577
 20
23221.9761866
 10
37.926684306
 20
23221.9762737
 10
41.7197877543
 20
23221.9763684
 10
45.5128912026
 20
23221.9764706
 10
49.3059946509
 20
23221.9765804
 10
53.0990980991
 20
23221.9766978
 10
56.8922015474
 20
23221.9768227
 10
60.6853049957
 20
23221.9769552
 10
64.478408444
 20
23221.9770953
 10
68.2715118922
 20
23221.977243
 10
72.0646153405
 20
23221.9773982
 10
75.8577187888
 20
23221.977561
 10
79.6508222371
 20
23221.9777314
 10
83.4439256853
 20
23221.9779093
 10
87.2370291336
 20
23221.9780949
 10
91.0301325819
 20
23221.978288
 10
94.8232360302
 20
23221.9784886
 10
98.6163394784
 20
23221.9786969
 10
102.409442927
 20
23221.9789127
  0
LINE
  5
af
330
1F
100
AcDbEntity
  8
Mirrors
100
AcDbLine
 10
102.409442927
 20
23071.9309161
 30
0.0
  11
-117.590557073
 21
23072.0269093
 31
0.0
  0
LINE
  5
b0
330
1F
100
AcDbEntity
  8
Mirrors
100
AcDbLine
 10
-27723.8844782
 20
101.431433482
 30
0.0
  11
-27746.7488362
 21
78.7826000247
 31
0.0
  0
LINE
  5
b1
330
1F
100
AcDbEntity
  8
Mirrors
100
AcDbLine
 10
-27814.022
 20
152.899967821
 30
0.0
  11
-27794.2595218
 21
172.476160518
 31
0.0
  0
LINE
  5
b2
330
1F
100
AcDbEntity
  8
Mirrors
100
AcDbLine
 10
-27796.3908636
 20
170.36490921
 30
0.0
  11
-27726.01582
 21
99.3201821745
 31
0.0
  0
LINE
  5
b3
330
1F
100
AcDbEntity
  8
Mirrors
100
AcDbLine
 10
-27794.2595218
 20
172.476160518
 30
0.0
  11
-27723.8844782
 21
101.431433482
 31
0.0
  0
LINE
  5
b4
330
1F
100
AcDbEntity
  8
Mirrors
100
AcDbLine
 10
-27746.7488362
 20
78.7826000247
 30
0.0
  11
-27814.022
 21
152.899967821
 31
0.0
  0
LINE
  5
b5
330
1F
100
AcDbEntity
  8
Mirrors
100
AcDbLine
 10
-27223.8844459
 20
172.47612853
 30
0.0
  11
-27204.1219855
 21
152.899917868
 31
0.0
  0
LINE
  5
b6
330
1F
100
AcDbEntity
  8
Mirrors
100
AcDbLine
 10
-27271.3952167
 20
78.7826112272
 30
0.0
  11
-27294.2595541
 21
101.43146547
 31
0.0
  0
LINE
  5
b7
330
1F
100
AcDbEntity
  8
Mirrors
100
AcDbLine
 10
-27292.1282142
 20
99.3202122244
 30
0.0
  11
-27221.753106
 21
170.364875285
 31
0.0
  0
LINE
  5
b8
330
1F
100
AcDbEntity
  8
Mirrors
100
AcDbLine
 10
-27294.2595541
 20
101.43146547
 30
0.0
  11
-27223.8844459
 21
172.47612853
 31
0.0
  0
LINE
  5
b9
330
1F
100
AcDbEntity
  8
Mirrors
100
AcDbLine
 10
-27204.1219855
 20
152.899917868
 30
0.0
  11
-27271.3952167
 21
78.7826112272
 31
0.0
  0
LINE
  5
ba
330
1F
100
AcDbEntity
  8
Mirrors
100
AcDbLine
 10
-27559.048
 20
26535.6196579
 30
0.0
  11
-27559.048
 21
26563.4366108
 31
0.0
  0
LINE
  5
bb
330
1F
100
AcDbEntity
  8
Mirrors
100
AcDbLine
 10
-27459.048
 20
26567.8027051
 30
0.0
  11
-27459.048
 21
26535.6196579
 31
0.0
  0
LINE
  5
bc
330
1F
100
AcDbEntity
  8
Mirrors
100
AcDbLine
 10
-27459.048
 20
26538.6196579
 30
0.0
  11
-27559.048
 21
26538.6196579
 31
0.0
  0
LWPOLYLINE
  5
bd
330
1F
100
AcDbEntity
  8
Mirrors
100
AcDbPolyline
 90
60
 70
0
43
0.0
 10
-27459.048
 20
26535.6196579
 10
-27460.7721379
 20
26535.6219293
 10
-27462.4962759
 20
26535.6241209
 10
-27464.2204138
 20
26535.6262328
 10
-27465.9445517
 20
26535.6282651
 10
-27467.6686897
 20
26535.6302176
 10
-27469.3928276
 20
26535.6320905
 10
-27471.1169655
 20
26535.6338836
 10
-27472.8411034
 20
26535.6355971
 10
-27474.5652414
 20
26535.6372308
 10
-27476.2893793
 20
26535.6387849
 10
-27478.0135172
 20
26535.6402593
 10
-27479.7376552
 20
26535.641654
 10
-27481.4617931
 20
26535.6429689
 10
-27483.185931
 20
26535.6442042
 10
-27484.910069
 20
26535.6453598
 10
-27486.6342069
 20
26535.6464357
 10
-27488.3583448
 20
26535.6474319
 10
-27490.0824828
 20
26535.6483484
 10
-27491.8066207
 20
26535.6491852
 10
-27493.5307586
 20
26535.6499423
 10
-27495.2548966
 20
26535.6506197
 10
-27496.9790345
 20
26535.6512175
 10
-27498.7031724
 20
26535.6517355
 10
-27500.4273103
 20
26535.6521738
 10
-27502.1514483
 20
26535.6525324
 10
-27503.8755862
 20
26535.6528114
 10
-27505.5997241
 20
26535.6530106
 10
-27507.3238621
 20
26535.6531302
 10
-27509.048
 20
26535.65317
 10
-27509.048
 20
26535.65317
 10
-27510.7721379
 20
26535.6531302
 10
-27512.4962759
 20
26535.6530106
 10
-27514.2204138
 20
26535.6528114
 10
-27515.9445517
 20
26535.6525324
 10
-27517.6686897
 20
26535.6521738
 10
-27519.3928276
 20
26535.6517355
 10
-27521.1169655
 20
26535.6512175
 10
-27522.8411034
 20
26535.6506197
 10
-27524.5652414
 20
26535.6499423
 10
-27526.2893793
 20
26535.6491852
 10
-27528.0135172
 20
26535.6483484
 10
-27529.7376552
 20
26535.6474319
 10
-27531.4617931
 20
26535.6464357
 10
-27533.185931
 20
26535.6453598
 10
-27534.910069
 20
26535.6442042
 10
-27536.6342069
 20
26535.6429689
 10
-27538.3583448
 20
26535.641654
 10
-27540.0824828
 20
26535.6402593
 10
-27541.8066207
 20
26535.6387849
 10
-27543.5307586
 20
26535.6372308
 10
-27545.2548966
 20
26535.6355971
 10
-27546.9790345
 20
26535.6338836
 10
-27548.7031724
 20
26535.6320905
 10
-27550.4273103
 20
26535.6302176
 10
-27552.1514483
 20
26535.6282651
 10
-27553.8755862
 20
26535.6262328
 10
-27555.5997241
 20
26535.6241209
 10
-27557.3238621
 20
26535.6219293
 10
-27559.048
 20
26535.6196579
  0
LINE
  5
be
330
1F
100
AcDbEntity
  8
Mirrors
100
AcDbLine
 10
-27559.048
 20
26563.4366108
 30
0.0
  11
-27459.048
 21
26567.8027051
 31
0.0
  0
LINE
  5
bf
330
1F
100
AcDbEntity
  8
Mirrors
100
AcDbLine
 10
-21440.2036382
 20
-9.3288475176
 30
0.0
  11
-21411.1566232
 21
-11.4892694764
 31
0.0
  0
LINE
  5
c0
330
1F
100
AcDbEntity
  8
Mirrors
100
AcDbLine
 10
-21416.8331103
 20
-111.34328435
 30
0.0
  11
-21447.6208238
 21
-109.053394934
 31
0.0
  0
LINE
  5
c1
330
1F
100
AcDbEntity
  8
Mirrors
100
AcDbLine
 10
-21444.6290874
 20
-109.275910503
 30
0.0
  11
-21437.2119017
 21
-9.55136308631
 31
0.0
  0
LWPOLYLINE
  5
c2
330
1F
100
AcDbEntity
  8
Mirrors
100
AcDbPolyline
 90
60
 70
0
43
0.0
 10
-21447.6208238
 20
-109.053394934
 10
-21447.5023782
 20
-107.3333043
 10
-21447.3836014
 20
-105.613238295
 10
-21447.2644935
 20
-103.893196917
 10
-21447.1450545
 20
-102.173180168
 10
-21447.0252844
 20
-100.453188047
 10
-21446.9051832
 20
-98.7332205536
 10
-21446.7847508
 20
-97.0132776882
 10
-21446.6639873
 20
-95.2933594507
 10
-21446.5428927
 20
-93.573465841
 10
-21446.4214669
 20
-91.853596859
 10
-21446.2997101
 20
-90.1337525047
 10
-21446.1776221
 20
-88.413932778
 10
-21446.055203
 20
-86.6941376788
 10
-21445.9324528
 20
-84.9743672073
 10
-21445.8093714
 20
-83.2546213632
 10
-21445.685959
 20
-81.5349001465
 10
-21445.5622154
 20
-79.8152035573
 10
-21445.4381407
 20
-78.0955315955
 10
-21445.3137349
 20
-76.375884261
 10
-21445.188998
 20
-74.6562615538
 10
-21445.06393
 20
-72.9366634739
 10
-21444.9385308
 20
-71.2170900213
 10
-21444.8128005
 20
-69.4975411959
 10
-21444.6867392
 20
-67.7780169978
 10
-21444.5603467
 20
-66.0585174269
 10
-21444.433623
 20
-64.3390424831
 10
-21444.3065683
 20
-62.6195921666
 10
-21444.1791825
 20
-60.9001664773
 10
-21444.0514655
 20
-59.1807654151
 10
-21444.0514655
 20
-59.1807654151
 10
-21443.9234175
 20
-57.4613889802
 10
-21443.7950383
 20
-55.7420371724
 10
-21443.666328
 20
-54.0227099918
 10
-21443.5372866
 20
-52.3034074384
 10
-21443.407914
 20
-50.5841295122
 10
-21443.2782104
 20
-48.8648762132
 10
-21443.1481757
 20
-47.1456475414
 10
-21443.0178098
 20
-45.4264434969
 10
-21442.8871128
 20
-43.7072640797
 10
-21442.7560847
 20
-41.9881092898
 10
-21442.6247255
 20
-40.2689791271
 10
-21442.4930352
 20
-38.5498735919
 10
-21442.3610137
 20
-36.830792684
 10
-21442.2286611
 20
-35.1117364035
 10
-21442.0959775
 20
-33.3927047505
 10
-21441.9629627
 20
-31.6736977249
 10
-21441.8296167
 20
-29.9547153269
 10
-21441.6959397
 20
-28.2357575565
 10
-21441.5619315
 20
-26.5168244137
 10
-21441.4275922
 20
-24.7979158986
 10
-21441.2929218
 20
-23.0790320112
 10
-21441.1579203
 20
-21.3601727516
 10
-21441.0225877
 20
-19.6413381198
 10
-21440.8869239
 20
-17.9225281159
 10
-21440.750929
 20
-16.20374274
 10
-21440.614603
 20
-14.4849819922
 10
-21440.4779458
 20
-12.7662458725
 10
-21440.3409576
 20
-11.0475343809
 10
-21440.2036382
 20
-9.3288475176
  0
LINE
  5
c3
330
1F
100
AcDbEntity
  8
Mirrors
100
AcDbLine
 10
-21411.1566232
 20
-11.4892694764
 30
0.0
  11
-21416.8331103
 21
-111.34328435
 31
0.0
  0
LINE
  5
c4
330
1F
100
AcDbEntity
  8
Mirrors
100
AcDbLine
 10
-24432.2155108
 20
239.168084771
 30
0.0
  11
-24462.4143767
 21
241.118763888
 31
0.0
  0
LINE
  5
c5
330
1F
100
AcDbEntity
  8
Mirrors
100
AcDbLine
 10
-24455.4458509
 20
340.877040785
 30
0.0
  11
-24425.7694997
 21
338.960113211
 31
0.0
  0
LINE
  5
c6
330
1F
100
AcDbEntity
  8
Mirrors
100
AcDbLine
 10
-24428.7632605
 20
339.153493546
 30
0.0
  11
-24435.2092717
 21
239.361465106
 31
0.0
  0
LWPOLYLINE
  5
c7
330
1F
100
AcDbEntity
  8
Mirrors
100
AcDbPolyline
 90
60
 70
0
43
0.0
 10
-24425.7694997
 20
338.960113211
 10
-24425.886716
 20
337.239953614
 10
-24426.003719
 20
335.519780241
 10
-24426.1205088
 20
333.799593091
 10
-24426.2370853
 20
332.079392166
 10
-24426.3534485
 20
330.359177464
 10
-24426.4695985
 20
328.638948986
 10
-24426.5855352
 20
326.918706732
 10
-24426.7012586
 20
325.198450701
 10
-24426.8167687
 20
323.478180895
 10
-24426.9320656
 20
321.757897313
 10
-24427.0471492
 20
320.037599954
 10
-24427.1620195
 20
318.317288819
 10
-24427.2766766
 20
316.596963909
 10
-24427.3911204
 20
314.876625222
 10
-24427.5053509
 20
313.156272759
 10
-24427.6193682
 20
311.435906521
 10
-24427.7331721
 20
309.715526506
 10
-24427.8467629
 20
307.995132715
 10
-24427.9601403
 20
306.274725148
 10
-24428.0733045
 20
304.554303806
 10
-24428.1862554
 20
302.833868687
 10
-24428.298993
 20
301.113419792
 10
-24428.4115174
 20
299.392957121
 10
-24428.5238285
 20
297.672480675
 10
-24428.6359263
 20
295.951990452
 10
-24428.7478109
 20
294.231486453
 10
-24428.8594822
 20
292.510968679
 10
-24428.9709402
 20
290.790437128
 10
-24429.082185
 20
289.069891802
 10
-24429.082185
 20
289.069891802
 10
-24429.1932164
 20
287.349332699
 10
-24429.3040347
 20
285.628759821
 10
-24429.4146396
 20
283.908173166
 10
-24429.5250313
 20
282.187572736
 10
-24429.6352097
 20
280.46695853
 10
-24429.7451749
 20
278.746330548
 10
-24429.8549267
 20
277.025688789
 10
-24429.9644653
 20
275.305033255
 10
-24430.0737907
 20
273.584363945
 10
-24430.1829028
 20
271.863680859
 10
-24430.2918016
 20
270.142983996
 10
-24430.4004871
 20
268.422273358
 10
-24430.5089594
 20
266.701548944
 10
-24430.6172184
 20
264.980810754
 10
-24430.7252641
 20
263.260058787
 10
-24430.8330965
 20
261.539293045
 10
-24430.9407157
 20
259.818513527
 10
-24431.0481216
 20
258.097720232
 10
-24431.1553143
 20
256.376913162
 10
-24431.2622937
 20
254.656092315
 10
-24431.3690598
 20
252.935257693
 10
-24431.4756126
 20
251.214409294
 10
-24431.5819522
 20
249.493547119
 10
-24431.6880785
 20
247.772671168
 10
-24431.7939915
 20
246.051781441
 10
-24431.8996912
 20
244.330877938
 10
-24432.0051777
 20
242.609960659
 10
-24432.1104509
 20
240.889029603
 10
-24432.2155108
 20
239.168084771
  0
LINE
  5
c8
330
1F
100
AcDbEntity
  8
Mirrors
100
AcDbLine
 10
-24462.4143767
 20
241.118763888
 30
0.0
  11
-24455.4458509
 21
340.877040785
 31
0.0
  0
LINE
  5
ca
330
1F
100
AcDbEntity
  8
input_beam
100
AcDbLine
 10
-21444.0514655
 20
-59.1807654151
 30
0.0
  11
-21413.9454352
 21
-60.5467363273
 31
0.0
  0
LINE
  5
cb
330
1F
100
AcDbEntity
  8
input_beam
100
AcDbLine
 10
-27226.8173004
 20
127.8956839
 30
0.0
  11
-21444.0514655
 21
-59.1807654151
 31
0.0
  0
LINE
  5
cc
330
1F
100
AcDbEntity
  8
input_beam
100
AcDbLine
 10
-27259.072
 20
136.953797
 30
0.0
  11
-27509.048
 21
26535.65317
 31
0.0
  0
LINE
  5
cd
330
1F
100
AcDbEntity
  8
input_beam
100
AcDbLine
 10
-27509.048
 20
26535.65317
 30
0.0
  11
-27759.0244545
 21
136.905799065
 31
0.0
  0
LINE
  5
ce
330
1F
100
AcDbEntity
  8
input_beam
100
AcDbLine
 10
-27259.072
 20
136.953797
 30
0.0
  11
-27226.8173004
 21
127.8956839
 31
0.0
  0
LINE
  5
cf
330
1F
100
AcDbEntity
  8
input_beam
100
AcDbLine
 10
-21444.0514655
 20
-59.1807654151
 30
0.0
  11
-24429.082185
 21
289.069891802
 31
0.0
  0
LINE
  5
d0
330
1F
100
AcDbEntity
  8
input_beam
100
AcDbLine
 10
-24458.855873
 20
292.060700194
 30
0.0
  11
-25452.3897244
 21
405.59697659
 31
0.0
  0
LINE
  5
d1
330
1F
100
AcDbEntity
  8
input_beam
100
AcDbLine
 10
-19562.089995
 20
226.433061268
 30
0.0
  11
-19462.1074509
 21
226.716889079
 31
0.0
  0
LINE
  5
d2
330
1F
100
AcDbEntity
  8
input_beam
100
AcDbLine
 10
-21413.9454352
 20
-60.5467363273
 30
0.0
  11
-20414.7530916
 21
-100.729574783
 31
0.0
  0
LINE
  5
d3
330
1F
100
AcDbEntity
  8
input_beam
100
AcDbLine
 10
-24429.082185
 20
289.069891802
 30
0.0
  11
-19562.089995
 21
226.433061268
 31
0.0
  0
LINE
  5
d4
330
1F
100
AcDbEntity
  8
input_beam
100
AcDbLine
 10
-29790.2809515
 20
63.2282381668
 30
0.0
  11
-27791.326695
 21
127.895699091
 31
0.0
  0
LINE
  5
d5
330
1F
100
AcDbEntity
  8
input_beam
100
AcDbLine
 10
-27759.0244545
 20
136.905799065
 30
0.0
  11
-27259.1204459
 21
136.904890186
 31
0.0
  0
LINE
  5
d6
330
1F
100
AcDbEntity
  8
input_beam
100
AcDbLine
 10
-27791.326695
 20
127.895699091
 30
0.0
  11
-27759.072
 21
136.953797
 31
0.0
  0
LINE
  5
d7
330
1F
100
AcDbEntity
  8
input_beam
100
AcDbLine
 10
-24429.082185
 20
289.069891802
 30
0.0
  11
-24458.855873
 21
292.060700194
 31
0.0
  0
TEXT
  5
d9
330
1F
100
AcDbEntity
  8
text
100
AcDbText
 10
-27742.4518073
 20
109.196502991
 30
0.0
  40
1.0
  1
MCi:s3 P=1.49E-01 
 50
0.0
 7
Standard
100
AcDbText
  0
TEXT
  5
da
330
1F
100
AcDbEntity
  8
text
100
AcDbText
 10
-27765.1455207
 20
112.509902801
 30
0.0
  40
1.0
  1
MCi:s2 P=1.49E+02 
 50
0.0
 7
Standard
100
AcDbText
  0
TEXT
  5
db
330
1F
100
AcDbEntity
  8
text
100
AcDbText
 10
-27768.9699328
 20
135.212841477
 30
0.0
  40
1.0
  1
MCi:s1 P=1.50E+02 
 50
0.0
 7
Standard
100
AcDbText
  0
TEXT
  5
dc
330
1F
100
AcDbEntity
  8
text
100
AcDbText
 10
-27801.3538001
 20
128.571838915
 30
0.0
  40
1.0
  1
MCi:t1 P=1.50E+02 
 50
0.0
 7
Standard
100
AcDbText
  0
TEXT
  5
dd
330
1F
100
AcDbEntity
  8
text
100
AcDbText
 10
-27733.740424
 20
98.3816668146
 30
0.0
  40
1.0
  1
MCi:s4 P=1.48E-01 
 50
0.0
 7
Standard
100
AcDbText
  0
TEXT
  5
de
330
1F
100
AcDbEntity
  8
text
100
AcDbText
 10
-28046.4848254
 20
-1845.678553
 30
0.0
  40
1.0
  1
MCi:r1 P=1.50E-01 
 50
0.0
 7
Standard
100
AcDbText
  0
TEXT
  5
df
330
1F
100
AcDbEntity
  8
text
100
AcDbText
 10
-27714.1138834
 20
-1886.05809
 30
0.0
  40
1.0
  1
MCi:r2 P=1.49E+02 
 50
0.0
 7
Standard
100
AcDbText
  0
TEXT
  5
e0
330
1F
100
AcDbEntity
  8
text
100
AcDbText
 10
-27269.072
 20
137.953797
 30
0.0
  40
1.0
  1
MCi:t1 P=9.44E-01 
 50
0.0
 7
Standard
100
AcDbText
  0
TEXT
  5
e1
330
1F
100
AcDbEntity
  8
text
100
AcDbText
 10
-27236.1744894
 20
131.56215549
 30
0.0
  40
1.0
  1
MCo:s1 P=5.95E-03 
 50
0.0
 7
Standard
100
AcDbText
  0
TEXT
  5
e2
330
1F
100
AcDbEntity
  8
text
100
AcDbText
 10
-27509.9532669
 20
26525.6441495
 30
0.0
  40
1.0
  1
MCo:r1 P=9.38E-01 
 50
0.0
 7
Standard
100
AcDbText
  0
TEXT
  5
e3
330
1F
100
AcDbEntity
  8
text
100
AcDbText
 10
-27757.929811
 20
146.895881932
 30
0.0
  40
1.0
  1
MCe:r1 P=9.38E-01 
 50
0.0
 7
Standard
100
AcDbText
  0
TEXT
  5
e4
330
1F
100
AcDbEntity
  8
text
100
AcDbText
 10
-21454.013903
 20
-57.8579505682
 30
0.0
  40
1.0
  1
MCo:t1 P=5.94E-03 
 50
0.0
 7
Standard
100
AcDbText
  0
TEXT
  5
e5
330
1F
100
AcDbEntity
  8
text
100
AcDbText
 10
-24419.2654322
 20
286.917831163
 30
0.0
  40
1.0
  1
MMT1:r1 P=5.94E-03 
 50
0.0
 7
Standard
100
AcDbText
  0
TEXT
  5
e6
330
1F
100
AcDbEntity
  8
text
100
AcDbText
 10
-19572.0762983
 20
227.561665015
 30
0.0
  40
1.0
  1
MMT2:r1 P=5.93E-03 
 50
0.0
 7
Standard
100
AcDbText
  0
TEXT
  5
e7
330
1F
100
AcDbEntity
  8
text
100
AcDbText
 10
-19472.1102494
 20
227.688497428
 30
0.0
  40
1.0
  1
PRM:s1 P=5.93E-03 
 50
0.0
 7
Standard
100
AcDbText
  0
TEXT
  5
e8
330
1F
100
AcDbEntity
  8
text
100
AcDbText
 10
-19552.0871965
 20
225.46145292
 30
0.0
  40
1.0
  1
PRM:s2 P=5.33E-03 
 50
0.0
 7
Standard
100
AcDbText
  0
TEXT
  5
e9
330
1F
100
AcDbEntity
  8
text
100
AcDbText
 10
-24419.0958817
 20
287.941288055
 30
0.0
  40
1.0
  1
PRM:r2 P=5.33E-03 
 50
0.0
 7
Standard
100
AcDbText
  0
TEXT
  5
ea
330
1F
100
AcDbEntity
  8
text
100
AcDbText
 10
-21453.8682183
 20
-57.0287047762
 30
0.0
  40
1.0
  1
MMT2:r1 P=5.33E-03 
 50
0.0
 7
Standard
100
AcDbText
  0
TEXT
  5
eb
330
1F
100
AcDbEntity
  8
text
100
AcDbText
 10
-27216.8548629
 20
126.572869053
 30
0.0
  40
1.0
  1
MMT1:r1 P=5.32E-03 
 50
0.0
 7
Standard
100
AcDbText
  0
TEXT
  5
ec
330
1F
100
AcDbEntity
  8
text
100
AcDbText
 10
-27249.714811
 20
133.287325411
 30
0.0
  40
1.0
  1
MCo:s1 P=5.32E-03 
 50
0.0
 7
Standard
100
AcDbText
  0
TEXT
  5
ed
330
1F
100
AcDbEntity
  8
text
100
AcDbText
 10
-27251.0782053
 20
113.068834835
 30
0.0
  40
1.0
  1
MCo:s2 P=5.28E-03 
 50
0.0
 7
Standard
100
AcDbText
  0
TEXT
  5
ee
330
1F
100
AcDbEntity
  8
text
100
AcDbText
 10
-27275.0041423
 20
-886.477462912
 30
0.0
  40
1.0
  1
MCo:r2 P=5.28E-03 
 50
0.0
 7
Standard
100
AcDbText
  0
TEXT
  5
ef
330
1F
100
AcDbEntity
  8
text
100
AcDbText
 10
-21454.013903
 20
-57.8579505682
 30
0.0
  40
1.0
  1
MCo:t1 P=1.00E+02 
 50
0.0
 7
Standard
100
AcDbText
  0
TEXT
  5
f0
330
1F
100
AcDbEntity
  8
text
100
AcDbText
 10
-21423.8898326
 20
-59.0945103136
 30
0.0
  40
1.0
  1
MMT1:s1 P=1.00E-01 
 50
0.0
 7
Standard
100
AcDbText
  0
TEXT
  5
f1
330
1F
100
AcDbEntity
  8
text
100
AcDbText
 10
-24419.2654322
 20
286.917831163
 30
0.0
  40
1.0
  1
MMT1:r1 P=9.99E+01 
 50
0.0
 7
Standard
100
AcDbText
  0
TEXT
  5
f2
330
1F
100
AcDbEntity
  8
text
100
AcDbText
 10
-24449.0058952
 20
290.066223638
 30
0.0
  40
1.0
  1
MMT2:s1 P=9.99E-02 
 50
0.0
 7
Standard
100
AcDbText
  0
TEXT
  5
f3
330
1F
100
AcDbEntity
  8
text
100
AcDbText
 10
-19472.1734529
 20
233.979835128
 30
0.0
  40
1.0
  1
PRM:s3 P=4.49E-02 
 50
0.0
 7
Standard
100
AcDbText
  0
TEXT
  5
f4
330
1F
100
AcDbEntity
  8
text
100
AcDbText
 10
-19552.0871965
 20
225.46145292
 30
0.0
  40
1.0
  1
PRM:s2 P=8.98E+01 
 50
0.0
 7
Standard
100
AcDbText
  0
TEXT
  5
f5
330
1F
100
AcDbEntity
  8
text
100
AcDbText
 10
-19472.1102494
 20
227.688497428
 30
0.0
  40
1.0
  1
PRM:s1 P=9.98E+01 
 50
0.0
 7
Standard
100
AcDbText
  0
TEXT
  5
f6
330
1F
100
AcDbEntity
  8
text
100
AcDbText
 10
-19572.0762983
 20
227.561665015
 30
0.0
  40
1.0
  1
MMT2:r1 P=9.98E+01 
 50
0.0
 7
Standard
100
AcDbText
  0
TEXT
  5
f7
330
1F
100
AcDbEntity
  8
text
100
AcDbText
 10
-19552.7087878
 20
238.784613608
 30
0.0
  40
1.0
  1
PRM:s4 P=4.04E-02 
 50
0.0
 7
Standard
100
AcDbText
  0
TEXT
  5
f8
330
1F
100
AcDbEntity
  8
text
100
AcDbText
 10
-20548.1395818
 20
138.074630112
 30
0.0
  40
1.0
  1
PRM:r1 P=4.99E-02 
 50
0.0
 7
Standard
100
AcDbText
  0
TEXT
  5
f9
330
1F
100
AcDbEntity
  8
text
100
AcDbText
 10
-24419.0958817
 20
287.941288055
 30
0.0
  40
1.0
  1
PRM:r2 P=8.97E+01 
 50
0.0
 7
Standard
100
AcDbText
  0
TEXT
  5
fa
330
1F
100
AcDbEntity
  8
text
100
AcDbText
 10
-24449.0374465
 20
288.646224358
 30
0.0
  40
1.0
  1
MMT2:s1 P=8.97E-02 
 50
0.0
 7
Standard
100
AcDbText
  0
TEXT
  5
fb
330
1F
100
AcDbEntity
  8
text
100
AcDbText
 10
-21453.8682183
 20
-57.0287047762
 30
0.0
  40
1.0
  1
MMT2:r1 P=8.96E+01 
 50
0.0
 7
Standard
100
AcDbText
  0
TEXT
  5
fc
330
1F
100
AcDbEntity
  8
text
100
AcDbText
 10
-21423.8882505
 20
-60.2624455932
 30
0.0
  40
1.0
  1
MMT1:s1 P=8.96E-02 
 50
0.0
 7
Standard
100
AcDbText
  0
TEXT
  5
fd
330
1F
100
AcDbEntity
  8
text
100
AcDbText
 10
-27276.0631147
 20
107.231177802
 30
0.0
  40
1.0
  1
MCo:s3 P=8.89E-02 
 50
0.0
 7
Standard
100
AcDbText
  0
TEXT
  5
fe
330
1F
100
AcDbEntity
  8
text
100
AcDbText
 10
-27251.0782053
 20
113.068834835
 30
0.0
  40
1.0
  1
MCo:s2 P=8.89E+01 
 50
0.0
 7
Standard
100
AcDbText
  0
TEXT
  5
ff
330
1F
100
AcDbEntity
  8
text
100
AcDbText
 10
-27249.714811
 20
133.287325411
 30
0.0
  40
1.0
  1
MCo:s1 P=8.95E+01 
 50
0.0
 7
Standard
100
AcDbText
  0
TEXT
  5
100
330
1F
100
AcDbEntity
  8
text
100
AcDbText
 10
-27216.8548629
 20
126.572869053
 30
0.0
  40
1.0
  1
MMT1:r1 P=8.96E+01 
 50
0.0
 7
Standard
100
AcDbText
  0
TEXT
  5
101
330
1F
100
AcDbEntity
  8
text
100
AcDbText
 10
-27282.4419529
 20
98.7712101176
 30
0.0
  40
1.0
  1
MCo:s4 P=8.83E-02 
 50
0.0
 7
Standard
100
AcDbText
  0
TEXT
  5
102
330
1F
100
AcDbEntity
  8
text
100
AcDbText
 10
-27098.3960498
 20
-853.74018668
 30
0.0
  40
1.0
  1
MCo:r1 P=8.96E-02 
 50
0.0
 7
Standard
100
AcDbText
  0
TEXT
  5
103
330
1F
100
AcDbEntity
  8
text
100
AcDbText
 10
-27275.0041423
 20
-886.477462912
 30
0.0
  40
1.0
  1
MCo:r2 P=8.88E+01 
 50
0.0
 7
Standard
100
AcDbText
  0
TEXT
  5
104
330
1F
100
AcDbEntity
  8
text
100
AcDbText
 10
-27749.072
 20
135.953797
 30
0.0
  40
1.0
  1
MCo:t1 P=5.64E-01 
 50
0.0
 7
Standard
100
AcDbText
  0
TEXT
  5
105
330
1F
100
AcDbEntity
  8
text
100
AcDbText
 10
-20431.5231326
 20
-183.748874884
 30
0.0
  40
1.0
  1
MMT1:t1 P=8.96E-02 
 50
0.0
 7
Standard
100
AcDbText
  0
TEXT
  5
106
330
1F
100
AcDbEntity
  8
text
100
AcDbText
 10
-25448.9602298
 20
299.337898522
 30
0.0
  40
1.0
  1
MMT2:t1 P=8.96E-02 
 50
0.0
 7
Standard
100
AcDbText
  0
TEXT
  5
107
330
1F
100
AcDbEntity
  8
text
100
AcDbText
 10
-20546.2604662
 20
352.484231047
 30
0.0
  40
1.0
  1
PRM:r3 P=4.04E-02 
 50
0.0
 7
Standard
100
AcDbText
  0
TEXT
  5
108
330
1F
100
AcDbEntity
  8
text
100
AcDbText
 10
-18477.5949716
 20
337.61794486
 30
0.0
  40
1.0
  1
PRM:t2 P=4.49E-03 
 50
0.0
 7
Standard
100
AcDbText
  0
TEXT
  5
109
330
1F
100
AcDbEntity
  8
text
100
AcDbText
 10
-18472.1142787
 20
230.527259635
 30
0.0
  40
1.0
  1
PRM:t1 P=9.98E+00 
 50
0.0
 7
Standard
100
AcDbText
  0
TEXT
  5
10a
330
1F
100
AcDbEntity
  8
text
100
AcDbText
 10
-25442.5679222
 20
403.468079975
 30
0.0
  40
1.0
  1
MMT2:t1 P=9.98E-02 
 50
0.0
 7
Standard
100
AcDbText
  0
TEXT
  5
10b
330
1F
100
AcDbEntity
  8
text
100
AcDbText
 10
-19425.5124886
 20
-139.511392511
 30
0.0
  40
1.0
  1
MMT1:t1 P=9.99E-02 
 50
0.0
 7
Standard
100
AcDbText
  0
TEXT
  5
10c
330
1F
100
AcDbEntity
  8
text
100
AcDbText
 10
-27218.6180481
 20
151.315001432
 30
0.0
  40
1.0
  1
MCo:s3 P=9.87E-02 
 50
0.0
 7
Standard
100
AcDbText
  0
TEXT
  5
10d
330
1F
100
AcDbEntity
  8
text
100
AcDbText
 10
-27235.7881481
 20
148.061269321
 30
0.0
  40
1.0
  1
MCo:s2 P=1.00E-01 
 50
0.0
 7
Standard
100
AcDbText
  0
TEXT
  5
10e
330
1F
100
AcDbEntity
  8
text
100
AcDbText
 10
-27236.2197257
 20
131.512322446
 30
0.0
  40
1.0
  1
MCo:s1 P=1.00E+02 
 50
0.0
 7
Standard
100
AcDbText
  0
TEXT
  5
10f
330
1F
100
AcDbEntity
  8
text
100
AcDbText
 10
-27269.1204441
 20
137.904908367
 30
0.0
  40
1.0
  1
MCi:r1 P=1.59E+04 
 50
0.0
 7
Standard
100
AcDbText
  0
TEXT
  5
110
330
1F
100
AcDbEntity
  8
text
100
AcDbText
 10
-27506.2772521
 20
26555.932832
 30
0.0
  40
1.0
  1
MCe:s3 P=1.58E-03 
 50
0.0
 7
Standard
100
AcDbText
  0
TEXT
  5
111
330
1F
100
AcDbEntity
  8
text
100
AcDbText
 10
-27506.7268161
 20
26545.701183
 30
0.0
  40
1.0
  1
MCe:s2 P=1.58E-03 
 50
0.0
 7
Standard
100
AcDbText
  0
TEXT
  5
112
330
1F
100
AcDbEntity
  8
text
100
AcDbText
 10
-27510.275265
 20
26555.6005614
 30
0.0
  40
1.0
  1
MCe:s1 P=1.58E+00 
 50
0.0
 7
Standard
100
AcDbText
  0
TEXT
  5
113
330
1F
100
AcDbEntity
  8
text
100
AcDbText
 10
-27510.0501578
 20
26525.6441477
 30
0.0
  40
1.0
  1
MCo:r1 P=1.58E+04 
 50
0.0
 7
Standard
100
AcDbText
  0
TEXT
  5
114
330
1F
100
AcDbEntity
  8
text
100
AcDbText
 10
-27757.9374954
 20
146.903609085
 30
0.0
  40
1.0
  1
MCe:r1 P=1.58E+04 
 50
0.0
 7
Standard
100
AcDbText
  0
TEXT
  5
115
330
1F
100
AcDbEntity
  8
text
100
AcDbText
 10
-27369.9215167
 20
27546.6338251
 30
0.0
  40
1.0
  1
MCe:t2 P=1.58E-03 
 50
0.0
 7
Standard
100
AcDbText
  0
TEXT
  5
116
330
1F
100
AcDbEntity
  8
text
100
AcDbText
 10
-27500.2800901
 20
27555.5659246
 30
0.0
  40
1.0
  1
MCe:t1 P=1.58E+00 
 50
0.0
 7
Standard
100
AcDbText
  0
TEXT
  5
117
330
1F
100
AcDbEntity
  8
text
100
AcDbText
 10
-25250.0831528
 20
-200.041982065
 30
0.0
  40
1.0
  1
MCo:t2 P=9.86E-02 
 50
0.0
 7
Standard
100
AcDbText
  0
TEXT
  5
118
330
1F
100
AcDbEntity
  8
text
100
AcDbText
 10
-21454.0184526
 20
-57.9191356869
 30
0.0
  40
1.0
  1
MCo:t1 P=9.99E+01 
 50
0.0
 7
Standard
100
AcDbText
  0
TEXT
  5
119
330
1F
100
AcDbEntity
  8
text
100
AcDbText
 10
-21423.8933144
 20
-59.1557424764
 30
0.0
  40
1.0
  1
MMT1:s1 P=9.99E-02 
 50
0.0
 7
Standard
100
AcDbText
  0
TEXT
  5
11a
330
1F
100
AcDbEntity
  8
text
100
AcDbText
 10
-24419.2723523
 20
286.810330275
 30
0.0
  40
1.0
  1
MMT1:r1 P=9.98E+01 
 50
0.0
 7
Standard
100
AcDbText
  0
TEXT
  5
11b
330
1F
100
AcDbEntity
  8
text
100
AcDbText
 10
-24449.0134124
 20
289.95836634
 30
0.0
  40
1.0
  1
MMT2:s1 P=9.98E-02 
 50
0.0
 7
Standard
100
AcDbText
  0
TEXT
  5
11c
330
1F
100
AcDbEntity
  8
text
100
AcDbText
 10
-23439.1582454
 20
277.222253778
 30
0.0
  40
1.0
  1
MMT2:r1 P=9.97E+01 
 50
0.0
 7
Standard
100
AcDbText
  0
TEXT
  5
11d
330
1F
100
AcDbEntity
  8
text
100
AcDbText
 10
-25442.5775749
 20
403.341466111
 30
0.0
  40
1.0
  1
MMT2:t1 P=9.97E-02 
 50
0.0
 7
Standard
100
AcDbText
  0
TEXT
  5
11e
330
1F
100
AcDbEntity
  8
text
100
AcDbText
 10
-20424.7082602
 20
-99.388439994
 30
0.0
  40
1.0
  1
MMT1:t1 P=9.98E-02 
 50
0.0
 7
Standard
100
AcDbText
  0
TEXT
  5
11f
330
1F
100
AcDbEntity
  8
text
100
AcDbText
 10
-27798.8203445
 20
149.444975123
 30
0.0
  40
1.0
  1
MCi:s3 P=9.87E-02 
 50
0.0
 7
Standard
100
AcDbText
  0
TEXT
  5
120
330
1F
100
AcDbEntity
  8
text
100
AcDbText
 10
-27784.2210483
 20
148.786425133
 30
0.0
  40
1.0
  1
MCi:s2 P=1.00E-01 
 50
0.0
 7
Standard
100
AcDbText
  0
TEXT
  5
121
330
1F
100
AcDbEntity
  8
text
100
AcDbText
 10
-27781.3844121
 20
129.587784222
 30
0.0
  40
1.0
  1
MCi:s1 P=1.00E+02 
 50
0.0
 7
Standard
100
AcDbText
  0
TEXT
  5
122
330
1F
100
AcDbEntity
  8
text
100
AcDbText
 10
-27749.0244563
 20
135.905780884
 30
0.0
  40
1.0
  1
MCi:r1 P=1.59E+04 
 50
0.0
 7
Standard
100
AcDbText
  0
TEXT
  5
123
330
1F
100
AcDbEntity
  8
text
100
AcDbText
 10
-27505.1180202
 20
26556.0136079
 30
0.0
  40
1.0
  1
MCe:s3 P=1.58E-03 
 50
0.0
 7
Standard
100
AcDbText
  0
TEXT
  5
124
330
1F
100
AcDbEntity
  8
text
100
AcDbText
 10
-27505.9733194
 20
26545.7027505
 30
0.0
  40
1.0
  1
MCe:s2 P=1.58E-03 
 50
0.0
 7
Standard
100
AcDbText
  0
TEXT
  5
125
330
1F
100
AcDbEntity
  8
text
100
AcDbText
 10
-27509.9175033
 20
26555.6349514
 30
0.0
  40
1.0
  1
MCe:s1 P=1.58E+00 
 50
0.0
 7
Standard
100
AcDbText
  0
TEXT
  5
126
330
1F
100
AcDbEntity
  8
text
100
AcDbText
 10
-27510.1426435
 20
26525.6630871
 30
0.0
  40
1.0
  1
MCi:r1 P=1.58E+04 
 50
0.0
 7
Standard
100
AcDbText
  0
TEXT
  5
127
330
1F
100
AcDbEntity
  8
text
100
AcDbText
 10
-27258.1667331
 20
146.962817526
 30
0.0
  40
1.0
  1
MCe:r1 P=1.58E+04 
 50
0.0
 7
Standard
100
AcDbText
  0
TEXT
  5
128
330
1F
100
AcDbEntity
  8
text
100
AcDbText
 10
-27349.8327586
 20
27543.9269691
 30
0.0
  40
1.0
  1
MCe:t2 P=1.58E-03 
 50
0.0
 7
Standard
100
AcDbText
  0
TEXT
  5
129
330
1F
100
AcDbEntity
  8
text
100
AcDbText
 10
-27481.0239633
 20
27555.2375176
 30
0.0
  40
1.0
  1
MCe:t1 P=1.58E+00 
 50
0.0
 7
Standard
100
AcDbText
  0
TEXT
  5
12a
330
1F
100
AcDbEntity
  8
text
100
AcDbText
 10
-29767.7132979
 20
-202.003581812
 30
0.0
  40
1.0
  1
MCi:t2 P=9.86E-02 
 50
0.0
 7
Standard
100
AcDbText
  0
TEXT
  5
12b
330
1F
100
AcDbEntity
  8
text
100
AcDbText
 10
-29780.2096115
 20
62.5066887784
 30
0.0
  40
1.0
  1
MCi:t1 P=9.99E+01 
 50
0.0
 7
Standard
100
AcDbText
  0
TEXT
  5
12c
330
1F
100
AcDbEntity
  8
text
100
AcDbText
 10
-21513.3894092
 20
-46.0244761905
 30
0.0
  40
10.0
  1

 50
0.0
 7
Standard
100
AcDbText
  0
TEXT
  5
12d
330
1F
100
AcDbEntity
  8
text
100
AcDbText
 10
-21543.6758405
 20
-45.9526169455
 30
0.0
  40
10.0
  1

 50
0.0
 7
Standard
100
AcDbText
  0
TEXT
  5
12e
330
1F
100
AcDbEntity
  8
text
100
AcDbText
 10
-27518.1006687
 20
26435.5629647
 30
0.0
  40
10.0
  1

 50
0.0
 7
Standard
100
AcDbText
  0
TEXT
  5
12f
330
1F
100
AcDbEntity
  8
text
100
AcDbText
 10
-27748.0780198
 20
236.806627729
 30
0.0
  40
10.0
  1

 50
0.0
 7
Standard
100
AcDbText
  0
TEXT
  5
130
330
1F
100
AcDbEntity
  8
text
100
AcDbText
 10
-27320.3891904
 20
164.560399792
 30
0.0
  40
10.0
  1

 50
0.0
 7
Standard
100
AcDbText
  0
TEXT
  5
131
330
1F
100
AcDbEntity
  8
text
100
AcDbText
 10
-24330.9146572
 20
267.549285412
 30
0.0
  40
10.0
  1

 50
0.0
 7
Standard
100
AcDbText
  0
TEXT
  5
132
330
1F
100
AcDbEntity
  8
text
100
AcDbText
 10
-25354.171702
 20
384.308010436
 30
0.0
  40
10.0
  1

 50
0.0
 7
Standard
100
AcDbText
  0
TEXT
  5
133
330
1F
100
AcDbEntity
  8
text
100
AcDbText
 10
-19562.1354356
 20
236.432972566
 30
0.0
  40
10.0
  1

 50
0.0
 7
Standard
100
AcDbText
  0
TEXT
  5
134
330
1F
100
AcDbEntity
  8
text
100
AcDbText
 10
-20514.2704976
 20
-86.7193675017
 30
0.0
  40
10.0
  1

 50
0.0
 7
Standard
100
AcDbText
  0
TEXT
  5
135
330
1F
100
AcDbEntity
  8
text
100
AcDbText
 10
-19661.953028
 20
237.719098734
 30
0.0
  40
10.0
  1

 50
0.0
 7
Standard
100
AcDbText
  0
TEXT
  5
136
330
1F
100
AcDbEntity
  8
text
100
AcDbText
 10
-27891.5977452
 20
134.657097327
 30
0.0
  40
10.0
  1

 50
0.0
 7
Standard
100
AcDbText
  0
TEXT
  5
137
330
1F
100
AcDbEntity
  8
text
100
AcDbText
 10
-27359.1204277
 20
146.905071997
 30
0.0
  40
10.0
  1

 50
0.0
 7
Standard
100
AcDbText
  0
TEXT
  5
138
330
1F
100
AcDbEntity
  8
text
100
AcDbText
 10
-27858.0513281
 20
119.544241766
 30
0.0
  40
10.0
  1

 50
0.0
 7
Standard
100
AcDbText
  0
TEXT
  5
139
330
1F
100
AcDbEntity
  8
text
100
AcDbText
 10
-24360.3560947
 20
272.115934628
 30
0.0
  40
10.0
  1

 50
0.0
 7
Standard
100
AcDbText
  0
TEXT
  5
13a
330
1F
100
AcDbEntity
  8
text
100
AcDbText
 10
9.21471583871
 20
-15756.1344271
 30
0.0
  40
25.0
  1
SR3
 50
0.0
 7
Standard
100
AcDbText
  0
TEXT
  5
13b
330
1F
100
AcDbEntity
  8
text
100
AcDbText
 10
3026507.10965
 20
-35.1307284835
 30
0.0
  40
37.5
  1
ETMX
 50
0.0
 7
Standard
100
AcDbText
  0
TEXT
  5
13c
330
1F
100
AcDbEntity
  8
text
100
AcDbText
 10
-82.5905570882
 20
3023278.22254
 30
0.0
  40
37.5
  1
ETMY
 50
0.0
 7
Standard
100
AcDbText
  0
TEXT
  5
13d
330
1F
100
AcDbEntity
  8
text
100
AcDbText
 10
8.27796505273
 20
-38.2905760365
 30
0.0
  40
20.0
  1
BS
 50
0.0
 7
Standard
100
AcDbText
  0
TEXT
  5
13e
330
1F
100
AcDbEntity
  8
text
100
AcDbText
 10
227.671145199
 20
-19388.9355913
 30
0.0
  40
25.0
  1
SRM
 50
0.0
 7
Standard
100
AcDbText
  0
TEXT
  5
13f
330
1F
100
AcDbEntity
  8
text
100
AcDbText
 10
260.640858953
 20
-4545.15181384
 30
0.0
  40
25.0
  1
SR2
 50
0.0
 7
Standard
100
AcDbText
  0
TEXT
  5
140
330
1F
100
AcDbEntity
  8
text
100
AcDbText
 10
-19549.5901964
 20
214.074999379
 30
0.0
  40
25.0
  1
PRM
 50
0.0
 7
Standard
100
AcDbText
  0
TEXT
  5
141
330
1F
100
AcDbEntity
  8
text
100
AcDbText
 10
-15850.9545987
 20
-0.841698690765
 30
0.0
  40
25.0
  1
PR3
 50
0.0
 7
Standard
100
AcDbText
  0
TEXT
  5
142
330
1F
100
AcDbEntity
  8
text
100
AcDbText
 10
-4685.64247562
 20
256.804550668
 30
0.0
  40
25.0
  1
PR2
 50
0.0
 7
Standard
100
AcDbText
  0
TEXT
  5
143
330
1F
100
AcDbEntity
  8
text
100
AcDbText
 10
26357.1160223
 20
-35.1307284905
 30
0.0
  40
37.5
  1
ITMX
 50
0.0
 7
Standard
100
AcDbText
  0
TEXT
  5
144
330
1F
100
AcDbEntity
  8
text
100
AcDbText
 10
-82.5905570733
 20
23128.2289127
 30
0.0
  40
37.5
  1
ITMY
 50
0.0
 7
Standard
100
AcDbText
  0
TEXT
  5
145
330
1F
100
AcDbEntity
  8
text
100
AcDbText
 10
-27780.9787091
 20
122.647540461
 30
0.0
  40
7.5
  1
MCi
 50
0.0
 7
Standard
100
AcDbText
  0
TEXT
  5
146
330
1F
100
AcDbEntity
  8
text
100
AcDbText
 10
-27259.6653005
 20
122.647530774
 30
0.0
  40
7.5
  1
MCo
 50
0.0
 7
Standard
100
AcDbText
  0
TEXT
  5
147
330
1F
100
AcDbEntity
  8
text
100
AcDbText
 10
-27520.298
 20
26546.8696579
 30
0.0
  40
7.5
  1
MCe
 50
0.0
 7
Standard
100
AcDbText
  0
TEXT
  5
148
330
1F
100
AcDbEntity
  8
text
100
AcDbText
 10
-21443.9535489
 20
-64.0536990694
 30
0.0
  40
7.5
  1
MMT1
 50
0.0
 7
Standard
100
AcDbText
  0
TEXT
  5
149
330
1F
100
AcDbEntity
  8
text
100
AcDbText
 10
-24458.9613095
 20
286.281000664
 30
0.0
  40
7.5
  1
MMT2
 50
0.0
 7
Standard
100
AcDbText
  0
LINE
  5
14b
330
1F
100
AcDbEntity
  8
main_beam
100
AcDbLine
 10
-27759.072
 20
136.953797
 30
0.0
  11
-27768.9004428
 21
103.187855804
 31
0.0
  0
LINE
  5
14c
330
1F
100
AcDbEntity
  8
main_beam
100
AcDbLine
 10
-27791.326695
 20
127.895699091
 30
0.0
  11
-27759.072
 21
136.953797
 31
0.0
  0
LINE
  5
14d
330
1F
100
AcDbEntity
  8
main_beam
100
AcDbLine
 10
-29790.2809515
 20
63.2282381668
 30
0.0
  11
-27791.326695
 21
127.895699091
 31
0.0
  0
LINE
  5
14e
330
1F
100
AcDbEntity
  8
main_beam
100
AcDbLine
 10
-27768.9004428
 20
103.187855804
 30
0.0
  11
-27714.843232
 21
-1896.08146521
 31
0.0
  0
LINE
  5
14f
330
1F
100
AcDbEntity
  8
main_beam
100
AcDbLine
 10
-27226.8173004
 20
127.8956839
 30
0.0
  11
-21444.0514655
 21
-59.1807654151
 31
0.0
  0
LINE
  5
150
330
1F
100
AcDbEntity
  8
main_beam
100
AcDbLine
 10
-21444.0514655
 20
-59.1807654151
 30
0.0
  11
-24429.082185
 21
289.069891802
 31
0.0
  0
LINE
  5
151
330
1F
100
AcDbEntity
  8
main_beam
100
AcDbLine
 10
-19462.1074509
 20
226.716889079
 30
0.0
  11
-19562.089995
 21
226.433061268
 31
0.0
  0
LINE
  5
152
330
1F
100
AcDbEntity
  8
main_beam
100
AcDbLine
 10
-19562.089995
 20
226.433061268
 30
0.0
  11
-19462.1074509
 21
226.716889079
 31
0.0
  0
LINE
  5
153
330
1F
100
AcDbEntity
  8
main_beam
100
AcDbLine
 10
-24429.082185
 20
289.069891802
 30
0.0
  11
-19562.089995
 21
226.433061268
 31
0.0
  0
LINE
  5
154
330
1F
100
AcDbEntity
  8
main_beam
100
AcDbLine
 10
-19562.089995
 20
226.433061268
 30
0.0
  11
-24429.082185
 21
289.069891802
 31
0.0
  0
LINE
  5
155
330
1F
100
AcDbEntity
  8
main_beam
100
AcDbLine
 10
-24429.082185
 20
289.069891802
 30
0.0
  11
-21444.0514655
 21
-59.1807654151
 31
0.0
  0
LINE
  5
156
330
1F
100
AcDbEntity
  8
main_beam
100
AcDbLine
 10
-27259.072
 20
136.953797
 30
0.0
  11
-27249.2436021
 21
103.1878313
 31
0.0
  0
LINE
  5
157
330
1F
100
AcDbEntity
  8
main_beam
100
AcDbLine
 10
-27226.8173004
 20
127.8956839
 30
0.0
  11
-27259.072
 21
136.953797
 31
0.0
  0
LINE
  5
158
330
1F
100
AcDbEntity
  8
main_beam
100
AcDbLine
 10
-21444.0514655
 20
-59.1807654151
 30
0.0
  11
-27226.8173004
 21
127.8956839
 31
0.0
  0
LINE
  5
159
330
1F
100
AcDbEntity
  8
main_beam
100
AcDbLine
 10
-27249.2436021
 20
103.1878313
 30
0.0
  11
-27276.2740817
 21
-896.446778531
 31
0.0
  0
LINE
  5
15a
330
1F
100
AcDbEntity
  8
main_beam
100
AcDbLine
 10
-19462.1074509
 20
226.716889079
 30
0.0
  11
-18462.1114802
 21
229.555651287
 31
0.0
  0
LINE
  5
15b
330
1F
100
AcDbEntity
  8
main_beam
100
AcDbLine
 10
-27749.0244545
 20
136.905780884
 30
0.0
  11
-27259.1204459
 21
136.904890186
 31
0.0
  0
LINE
  5
15c
330
1F
100
AcDbEntity
  8
main_beam
100
AcDbLine
 10
-27259.1204459
 20
136.904890186
 30
0.0
  11
-27509.1449091
 21
26535.6531699
 31
0.0
  0
LINE
  5
15d
330
1F
100
AcDbEntity
  8
main_beam
100
AcDbLine
 10
-27509.1449091
 20
26535.6531699
 30
0.0
  11
-27759.0321052
 21
136.913522521
 31
0.0
  0
LINE
  5
15e
330
1F
100
AcDbEntity
  8
main_beam
100
AcDbLine
 10
-27749.0244545
 20
136.905780884
 30
0.0
  11
-27759.0244545
 21
136.905799065
 31
0.0
  0
LINE
  5
15f
330
1F
100
AcDbEntity
  8
main_beam
100
AcDbLine
 10
-27759.0244545
 20
136.905799065
 30
0.0
  11
-27509.048
 21
26535.65317
 31
0.0
  0
LINE
  5
160
330
1F
100
AcDbEntity
  8
main_beam
100
AcDbLine
 10
-27509.048
 20
26535.65317
 30
0.0
  11
-27259.072
 21
136.953797
 31
0.0
  0
LINE
  5
164
330
1F
100
AcDbEntity
  8
stray_beam
100
AcDbLine
 10
-27768.9004428
 20
103.187855804
 30
0.0
  11
-27732.4398049
 21
110.068171968
 31
0.0
  0
LINE
  5
165
330
1F
100
AcDbEntity
  8
stray_beam
100
AcDbLine
 10
-27732.4398049
 20
110.068171968
 30
0.0
  11
-27736.6685876
 21
88.7678299987
 31
0.0
  0
LINE
  5
166
330
1F
100
AcDbEntity
  8
stray_beam
100
AcDbLine
 10
-27791.326695
 20
127.895699091
 30
0.0
  11
-28048.7636916
 21
-1855.46664622
 31
0.0
  0
LINE
  5
167
330
1F
100
AcDbEntity
  8
stray_beam
100
AcDbLine
 10
-27759.072
 20
136.953797
 30
0.0
  11
-27259.072
 21
136.953797
 31
0.0
  0
LINE
  5
168
330
1F
100
AcDbEntity
  8
stray_beam
100
AcDbLine
 10
-27259.072
 20
136.953797
 30
0.0
  11
-27226.8173004
 21
127.8956839
 31
0.0
  0
LINE
  5
169
330
1F
100
AcDbEntity
  8
stray_beam
100
AcDbLine
 10
-27259.072
 20
136.953797
 30
0.0
  11
-27509.048
 21
26535.65317
 31
0.0
  0
LINE
  5
16a
330
1F
100
AcDbEntity
  8
stray_beam
100
AcDbLine
 10
-27509.048
 20
26535.65317
 30
0.0
  11
-27759.0244545
 21
136.905799065
 31
0.0
  0
LINE
  5
16b
330
1F
100
AcDbEntity
  8
stray_beam
100
AcDbLine
 10
-27226.8173004
 20
127.8956839
 30
0.0
  11
-21444.0514655
 21
-59.1807654151
 31
0.0
  0
LINE
  5
16c
330
1F
100
AcDbEntity
  8
stray_beam
100
AcDbLine
 10
-21444.0514655
 20
-59.1807654151
 30
0.0
  11
-24429.082185
 21
289.069891802
 31
0.0
  0
LINE
  5
16d
330
1F
100
AcDbEntity
  8
stray_beam
100
AcDbLine
 10
-24429.082185
 20
289.069891802
 30
0.0
  11
-19562.089995
 21
226.433061268
 31
0.0
  0
LINE
  5
16e
330
1F
100
AcDbEntity
  8
stray_beam
100
AcDbLine
 10
-19562.089995
 20
226.433061268
 30
0.0
  11
-19462.1074509
 21
226.716889079
 31
0.0
  0
LINE
  5
16f
330
1F
100
AcDbEntity
  8
stray_beam
100
AcDbLine
 10
-19462.1074509
 20
226.716889079
 30
0.0
  11
-19562.089995
 21
226.433061268
 31
0.0
  0
LINE
  5
170
330
1F
100
AcDbEntity
  8
stray_beam
100
AcDbLine
 10
-19562.089995
 20
226.433061268
 30
0.0
  11
-24429.082185
 21
289.069891802
 31
0.0
  0
LINE
  5
171
330
1F
100
AcDbEntity
  8
stray_beam
100
AcDbLine
 10
-24429.082185
 20
289.069891802
 30
0.0
  11
-21444.0514655
 21
-59.1807654151
 31
0.0
  0
LINE
  5
172
330
1F
100
AcDbEntity
  8
stray_beam
100
AcDbLine
 10
-21444.0514655
 20
-59.1807654151
 30
0.0
  11
-27226.8173004
 21
127.8956839
 31
0.0
  0
LINE
  5
173
330
1F
100
AcDbEntity
  8
stray_beam
100
AcDbLine
 10
-27226.8173004
 20
127.8956839
 30
0.0
  11
-27259.072
 21
136.953797
 31
0.0
  0
LINE
  5
174
330
1F
100
AcDbEntity
  8
stray_beam
100
AcDbLine
 10
-27259.072
 20
136.953797
 30
0.0
  11
-27249.2436021
 21
103.1878313
 31
0.0
  0
LINE
  5
175
330
1F
100
AcDbEntity
  8
stray_beam
100
AcDbLine
 10
-27249.2436021
 20
103.1878313
 30
0.0
  11
-27276.2740817
 21
-896.446778531
 31
0.0
  0
LINE
  5
176
330
1F
100
AcDbEntity
  8
stray_beam
100
AcDbLine
 10
-21444.0514655
 20
-59.1807654151
 30
0.0
  11
-21413.9454352
 21
-60.5467363273
 31
0.0
  0
LINE
  5
177
330
1F
100
AcDbEntity
  8
stray_beam
100
AcDbLine
 10
-24429.082185
 20
289.069891802
 30
0.0
  11
-24458.855873
 21
292.060700194
 31
0.0
  0
LINE
  5
178
330
1F
100
AcDbEntity
  8
stray_beam
100
AcDbLine
 10
-19562.089995
 20
226.433061268
 30
0.0
  11
-19462.1272447
 21
233.708353518
 31
0.0
  0
LINE
  5
179
330
1F
100
AcDbEntity
  8
stray_beam
100
AcDbLine
 10
-19462.1272447
 20
233.708353518
 30
0.0
  11
-19562.6193931
 21
240.451917608
 31
0.0
  0
LINE
  5
17a
330
1F
100
AcDbEntity
  8
stray_beam
100
AcDbLine
 10
-19562.089995
 20
226.433061268
 30
0.0
  11
-20558.1888147
 21
138.188281131
 31
0.0
  0
LINE
  5
17b
330
1F
100
AcDbEntity
  8
stray_beam
100
AcDbLine
 10
-24429.082185
 20
289.069891802
 30
0.0
  11
-24459.0043823
 21
289.934707901
 31
0.0
  0
LINE
  5
17c
330
1F
100
AcDbEntity
  8
stray_beam
100
AcDbLine
 10
-21444.0514655
 20
-59.1807654151
 30
0.0
  11
-21414.0443482
 21
-62.2866954412
 31
0.0
  0
LINE
  5
17d
330
1F
100
AcDbEntity
  8
stray_beam
100
AcDbLine
 10
-27249.2436021
 20
103.1878313
 30
0.0
  11
-27285.7042509
 21
110.068164602
 31
0.0
  0
LINE
  5
17e
330
1F
100
AcDbEntity
  8
stray_beam
100
AcDbLine
 10
-27285.7042509
 20
110.068164602
 30
0.0
  11
-27281.475517
 21
88.7679105739
 31
0.0
  0
LINE
  5
17f
330
1F
100
AcDbEntity
  8
stray_beam
100
AcDbLine
 10
-27226.8173004
 20
127.8956839
 30
0.0
  11
-27098.1005639
 21
-863.78571743
 31
0.0
  0
LINE
  5
180
330
1F
100
AcDbEntity
  8
stray_beam
100
AcDbLine
 10
-27259.072
 20
136.953797
 30
0.0
  11
-27759.072
 21
136.953797
 31
0.0
  0
LINE
  5
181
330
1F
100
AcDbEntity
  8
stray_beam
100
AcDbLine
 10
-21414.0443482
 20
-62.2866954412
 30
0.0
  11
-20421.7236167
 21
-185.978109758
 31
0.0
  0
LINE
  5
182
330
1F
100
AcDbEntity
  8
stray_beam
100
AcDbLine
 10
-24459.0043823
 20
289.934707901
 30
0.0
  11
-25458.9491695
 21
300.442925485
 31
0.0
  0
LINE
  5
183
330
1F
100
AcDbEntity
  8
stray_beam
100
AcDbLine
 10
-19562.6193931
 20
240.451917608
 30
0.0
  11
-20556.0809139
 21
354.619367063
 31
0.0
  0
LINE
  5
184
330
1F
100
AcDbEntity
  8
stray_beam
100
AcDbLine
 10
-19462.1272447
 20
233.708353518
 30
0.0
  11
-18467.5451966
 21
337.662908361
 31
0.0
  0
LINE
  5
185
330
1F
100
AcDbEntity
  8
stray_beam
100
AcDbLine
 10
-24458.855873
 20
292.060700194
 30
0.0
  11
-25452.3897244
 21
405.59697659
 31
0.0
  0
LINE
  5
186
330
1F
100
AcDbEntity
  8
stray_beam
100
AcDbLine
 10
-21413.9454352
 20
-60.5467363273
 30
0.0
  11
-19415.560748
 21
-140.912413239
 31
0.0
  0
LINE
  5
187
330
1F
100
AcDbEntity
  8
stray_beam
100
AcDbLine
 10
-27238.4769662
 20
157.744773704
 30
0.0
  11
-27209.6160246
 21
146.846939942
 31
0.0
  0
LINE
  5
188
330
1F
100
AcDbEntity
  8
stray_beam
100
AcDbLine
 10
-27226.8625404
 20
127.84584132
 30
0.0
  11
-27238.4769662
 21
157.744773704
 31
0.0
  0
LINE
  5
189
330
1F
100
AcDbEntity
  8
stray_beam
100
AcDbLine
 10
-27259.1204459
 20
136.904890186
 30
0.0
  11
-27226.8625404
 21
127.84584132
 31
0.0
  0
LINE
  5
18a
330
1F
100
AcDbEntity
  8
stray_beam
100
AcDbLine
 10
-27506.9171093
 20
26535.6531091
 30
0.0
  11
-27504.4729299
 21
26565.8194098
 31
0.0
  0
LINE
  5
18b
330
1F
100
AcDbEntity
  8
stray_beam
100
AcDbLine
 10
-27509.3406241
 20
26565.6068817
 30
0.0
  11
-27506.9171093
 21
26535.6531091
 31
0.0
  0
LINE
  5
18c
330
1F
100
AcDbEntity
  8
stray_beam
100
AcDbLine
 10
-27509.1449091
 20
26535.6531699
 30
0.0
  11
-27509.3406241
 21
26565.6068817
 31
0.0
  0
LINE
  5
18d
330
1F
100
AcDbEntity
  8
stray_beam
100
AcDbLine
 10
-27504.4729299
 20
26565.8194098
 30
0.0
  11
-27367.5618222
 21
27556.4027473
 31
0.0
  0
LINE
  5
18e
330
1F
100
AcDbEntity
  8
stray_beam
100
AcDbLine
 10
-27509.3406241
 20
26565.6068817
 30
0.0
  11
-27499.1785207
 21
27565.5552462
 31
0.0
  0
LINE
  5
18f
330
1F
100
AcDbEntity
  8
stray_beam
100
AcDbLine
 10
-27209.6160246
 20
146.846939942
 30
0.0
  11
-25240.4119432
 21
-202.774692266
 31
0.0
  0
LINE
  5
190
330
1F
100
AcDbEntity
  8
stray_beam
100
AcDbLine
 10
-27226.8625404
 20
127.84584132
 30
0.0
  11
-21444.0560173
 21
-59.2419678184
 31
0.0
  0
LINE
  5
191
330
1F
100
AcDbEntity
  8
stray_beam
100
AcDbLine
 10
-21444.0560173
 20
-59.2419678184
 30
0.0
  11
-21413.9489156
 21
-60.6079592198
 31
0.0
  0
LINE
  5
192
330
1F
100
AcDbEntity
  8
stray_beam
100
AcDbLine
 10
-21444.0560173
 20
-59.2419678184
 30
0.0
  11
-24429.0891383
 21
288.962239297
 31
0.0
  0
LINE
  5
193
330
1F
100
AcDbEntity
  8
stray_beam
100
AcDbLine
 10
-24429.0891383
 20
288.962239297
 30
0.0
  11
-24458.8634163
 21
291.952714296
 31
0.0
  0
LINE
  5
194
330
1F
100
AcDbEntity
  8
stray_beam
100
AcDbLine
 10
-24429.0891383
 20
288.962239297
 30
0.0
  11
-23429.171942
 21
276.093650696
 31
0.0
  0
LINE
  5
195
330
1F
100
AcDbEntity
  8
stray_beam
100
AcDbLine
 10
-24458.8634163
 20
291.952714296
 30
0.0
  11
-25452.3994175
 21
405.470176736
 31
0.0
  0
LINE
  5
196
330
1F
100
AcDbEntity
  8
stray_beam
100
AcDbLine
 10
-21413.9489156
 20
-60.6079592198
 30
0.0
  11
-20414.7565177
 21
-100.789447272
 31
0.0
  0
LINE
  5
197
330
1F
100
AcDbEntity
  8
stray_beam
100
AcDbLine
 10
-27779.667954
 20
157.745740544
 30
0.0
  11
-27808.5288811
 21
146.84799267
 31
0.0
  0
LINE
  5
198
330
1F
100
AcDbEntity
  8
stray_beam
100
AcDbLine
 10
-27791.2823466
 20
127.846838786
 30
0.0
  11
-27779.667954
 21
157.745740544
 31
0.0
  0
LINE
  5
199
330
1F
100
AcDbEntity
  8
stray_beam
100
AcDbLine
 10
-27759.0244545
 20
136.905799065
 30
0.0
  11
-27791.2823466
 21
127.846838786
 31
0.0
  0
LINE
  5
19a
330
1F
100
AcDbEntity
  8
stray_beam
100
AcDbLine
 10
-27506.0323161
 20
26535.6530481
 30
0.0
  11
-27503.1842139
 21
26565.8756763
 31
0.0
  0
LINE
  5
19b
330
1F
100
AcDbEntity
  8
stray_beam
100
AcDbLine
 10
-27508.8522075
 20
26565.6282064
 30
0.0
  11
-27506.0323161
 21
26535.6530481
 31
0.0
  0
LINE
  5
19c
330
1F
100
AcDbEntity
  8
stray_beam
100
AcDbLine
 10
-27509.048
 20
26535.65317
 30
0.0
  11
-27508.8522075
 21
26565.6282064
 31
0.0
  0
LINE
  5
19d
330
1F
100
AcDbEntity
  8
stray_beam
100
AcDbLine
 10
-27503.1842139
 20
26565.8756763
 30
0.0
  11
-27347.2860034
 21
27553.6488021
 31
0.0
  0
LINE
  5
19e
330
1F
100
AcDbEntity
  8
stray_beam
100
AcDbLine
 10
-27508.8522075
 20
26565.6282064
 30
0.0
  11
-27479.7331972
 21
27565.2041581
 31
0.0
  0
LINE
  5
19f
330
1F
100
AcDbEntity
  8
stray_beam
100
AcDbLine
 10
-27808.5288811
 20
146.84799267
 30
0.0
  11
-29777.7341317
 21
-202.767054422
 31
0.0
  0
LINE
  5
1a0
330
1F
100
AcDbEntity
  8
stray_beam
100
AcDbLine
 10
-27791.2823466
 20
127.846838786
 30
0.0
  11
-29790.2367153
 21
63.1828459988
 31
0.0
  0
LWPOLYLINE
  5
1a3
330
1F
100
AcDbEntity
  8
main_beam_width
100
AcDbPolyline
 90
10
 70
0
43
0.0
 10
-27752.6829139
 20
130.503912851
 10
-27753.7894019
 20
126.70258115
 10
-27754.8958898
 20
122.901249425
 10
-27756.0023777
 20
119.099917674
 10
-27757.1088654
 20
115.298585897
 10
-27758.2153531
 20
111.497254095
 10
-27759.3218407
 20
107.695922268
 10
-27760.4283282
 20
103.894590415
 10
-27761.5348156
 20
100.093258537
 10
-27762.6413029
 20
96.2919266335
  0
LWPOLYLINE
  5
1a4
330
1F
100
AcDbEntity
  8
main_beam_width
100
AcDbPolyline
 90
10
 70
0
43
0.0
 10
-27765.4611087
 20
143.403703957
 10
-27766.5387191
 20
139.701493444
 10
-27767.6163296
 20
135.999282955
 10
-27768.6939402
 20
132.297072489
 10
-27769.7715509
 20
128.594862048
 10
-27770.8491617
 20
124.892651631
 10
-27771.9267725
 20
121.190441238
 10
-27773.0043834
 20
117.48823087
 10
-27774.0819944
 20
113.786020525
 10
-27775.1596055
 20
110.083810204
  0
LWPOLYLINE
  5
1a5
330
1F
100
AcDbEntity
  8
main_beam_width
100
AcDbPolyline
 90
10
 70
0
43
0.0
 10
-27797.2897124
 20
134.465378952
 10
-27793.7532008
 20
135.458525873
 10
-27790.2166892
 20
136.45167287
 10
-27786.6801776
 20
137.444819942
 10
-27783.1436661
 20
138.43796709
 10
-27779.6071546
 20
139.431114312
 10
-27776.0706431
 20
140.424261611
 10
-27772.5341316
 20
141.417408984
 10
-27768.9976201
 20
142.410556433
 10
-27765.4611087
 20
143.403703957
  0
LWPOLYLINE
  5
1a6
330
1F
100
AcDbEntity
  8
main_beam_width
100
AcDbPolyline
 90
10
 70
0
43
0.0
 10
-27785.3636978
 20
121.326041404
 10
-27781.7324997
 20
122.345805216
 10
-27778.1013016
 20
123.365568948
 10
-27774.4701034
 20
124.385332601
 10
-27770.8389052
 20
125.405096175
 10
-27767.207707
 20
126.424859669
 10
-27763.5765087
 20
127.444623083
 10
-27759.9453105
 20
128.464386419
 10
-27756.3141122
 20
129.484149674
 10
-27752.6829139
 20
130.503912851
  0
LWPOLYLINE
  5
1a7
330
1F
100
AcDbEntity
  8
main_beam_width
100
AcDbPolyline
 90
10
 70
0
43
0.0
 10
-29796.2890101
 20
69.8475416323
 10
-29574.1778544
 20
77.0234488289
 10
-29352.0667298
 20
84.2003126758
 10
-29129.9556361
 20
91.3781367983
 10
-28907.8445737
 20
98.5569244306
 10
-28685.7335425
 20
105.736678409
 10
-28463.6225427
 20
112.917401166
 10
-28241.5115742
 20
120.099094726
 10
-28019.4006372
 20
127.281760697
 10
-27797.2897317
 20
134.465400274
  0
LWPOLYLINE
  5
1a8
330
1F
100
AcDbEntity
  8
main_beam_width
100
AcDbPolyline
 90
10
 70
0
43
0.0
 10
-29784.2733518
 20
56.6094402132
 10
-29562.1724059
 20
63.8040311269
 10
-29340.0714291
 20
70.9976652747
 10
-29117.9704213
 20
78.1903390519
 10
-28895.8693822
 20
85.3820492453
 10
-28673.7683119
 20
92.5727930396
 10
-28451.6672103
 20
99.7625680239
 10
-28229.5660772
 20
106.951372196
 10
-28007.4649127
 20
114.139203968
 10
-27785.3637167
 20
121.326062168
  0
LWPOLYLINE
  5
1a9
330
1F
100
AcDbEntity
  8
main_beam_width
100
AcDbPolyline
 90
10
 70
0
43
0.0
 10
-27762.6413319
 20
96.291958625
 10
-27756.656725
 20
-125.064650234
 10
-27750.6707822
 20
-346.421222969
 10
-27744.6835038
 20
-567.777759594
 10
-27738.6948913
 20
-789.134260147
 10
-27732.704947
 20
-1010.49072469
 10
-27726.7136741
 20
-1231.84715331
 10
-27720.7210765
 20
-1453.20354611
 10
-27714.7271591
 20
-1674.55990323
 10
-27708.7319276
 20
-1895.91622481
  0
LWPOLYLINE
  5
1aa
330
1F
100
AcDbEntity
  8
main_beam_width
100
AcDbPolyline
 90
10
 70
0
43
0.0
 10
-27775.1596359
 20
110.083843621
 10
-27769.1314441
 20
-112.841626873
 10
-27763.1046073
 20
-335.767134005
 10
-27757.0791251
 20
-558.692677761
 10
-27751.054996
 20
-781.618258105
 10
-27745.0322177
 20
-1004.54387497
 10
-27739.0107872
 20
-1227.46952828
 10
-27732.9907002
 20
-1450.39521792
 10
-27726.9719518
 20
-1673.32094375
 10
-27720.9545364
 20
-1896.24670562
  0
LWPOLYLINE
  5
1ab
330
1F
100
AcDbEntity
  8
main_beam_width
100
AcDbPolyline
 90
10
 70
0
43
0.0
 10
-27220.8542522
 20
134.465385693
 10
-26578.9293048
 20
113.706512165
 10
-25937.004095
 20
92.9557470132
 10
-25295.0786247
 20
72.2130332436
 10
-24653.1528968
 20
51.4782860778
 10
-24011.2269147
 20
30.7513944215
 10
-23369.3006828
 20
10.0322227399
 10
-22727.3742064
 20
-10.6793867349
 10
-22085.447491
 20
-31.3836115432
 10
-21443.520543
 20
-52.0806463681
  0
LWPOLYLINE
  5
1ac
330
1F
100
AcDbEntity
  8
main_beam_width
100
AcDbPolyline
 90
10
 70
0
43
0.0
 10
-27232.7802902
 20
121.32604638
 10
-26589.6455358
 20
100.512478749
 10
-25946.5110448
 20
79.6907714635
 10
-25303.3768153
 20
58.8609814097
 10
-24660.2428445
 20
38.0231934862
 10
-24017.1091288
 20
17.1775191268
 10
-23373.9756639
 20
-3.67590558822
 10
-22730.8424446
 20
-24.5369221574
 10
-22087.7094651
 20
-45.4053521405
 10
-21444.5767191
 20
-66.280999812
  0
LWPOLYLINE
  5
1ad
330
1F
100
AcDbEntity
  8
main_beam_width
100
AcDbPolyline
 90
36
 70
0
43
0.0
 10
-21444.5767013
 20
-66.2807579494
 10
-21529.8706374
 20
-56.4772767725
 10
-21615.1645872
 20
-46.673912305
 10
-21700.4585498
 20
-36.8706577545
 10
-21785.7525246
 20
-27.0675068409
 10
-21871.0465107
 20
-17.2644537499
 10
-21956.3405076
 20
-7.46149309032
 10
-22041.6345147
 20
2.34138014275
 10
-22126.9285314
 20
12.1441706022
 10
-22212.2225573
 20
21.9468826187
 10
-22297.5165919
 20
31.7495202282
 10
-22382.8106348
 20
41.5520871964
 10
-22468.1046854
 20
51.3545870405
 10
-22553.3987435
 20
61.1570230496
 10
-22638.6928087
 20
70.9593983028
 10
-22723.9868807
 20
80.7617156853
 10
-22809.2809591
 20
90.5639779035
 10
-22894.5750436
 20
100.366187499
 10
-22979.869134
 20
110.168346859
 10
-23065.16323
 20
119.970458231
 10
-23150.4573313
 20
129.77252373
 10
-23235.7514378
 20
139.574545351
 10
-23321.0455491
 20
149.376524971
 10
-23406.3396652
 20
159.178464368
 10
-23491.6337857
 20
168.980365216
 10
-23576.9279106
 20
178.782229102
 10
-23662.2220396
 20
188.584057524
 10
-23747.5161725
 20
198.385851904
 10
-23832.8103093
 20
208.187613585
 10
-23918.1044498
 20
217.989343845
 10
-24003.3985937
 20
227.791043893
 10
-24088.6927411
 20
237.592714879
 10
-24173.9868917
 20
247.394357896
 10
-24259.2810455
 20
257.19597398
 10
-24344.5752023
 20
266.99756412
 10
-24429.869362
 20
276.799129256
  0
LWPOLYLINE
  5
1ae
330
1F
100
AcDbEntity
  8
main_beam_width
100
AcDbPolyline
 90
36
 70
0
43
0.0
 10
-21443.5205256
 20
-52.0804147834
 10
-21528.7996234
 20
-41.9838420382
 10
-21614.0787076
 20
-31.887152582
 10
-21699.3577789
 20
-21.7903532079
 10
-21784.6368382
 20
-11.6934501964
 10
-21869.9158861
 20
-1.5964493625
 10
-21955.1949231
 20
8.50064390249
 10
-22040.47395
 20
18.5978245931
 10
-22125.7529672
 20
28.6950880563
 10
-22211.0319753
 20
38.7924299609
 10
-22296.3109747
 20
48.889846271
 10
-22381.5899658
 20
58.9873332207
 10
-22466.8689491
 20
69.0848872924
 10
-22552.147925
 20
79.1825051971
 10
-22637.4268938
 20
89.2801838556
 10
-22722.7058558
 20
99.3779203826
 10
-22807.9848114
 20
109.475712072
 10
-22893.2637609
 20
119.573556381
 10
-22978.5427045
 20
129.671450923
 10
-23063.8216425
 20
139.769393451
 10
-23149.1005751
 20
149.867381849
 10
-23234.3795026
 20
159.965414124
 10
-23319.6584252
 20
170.063488396
 10
-23404.9373432
 20
180.161602889
 10
-23490.2162566
 20
190.259755929
 10
-23575.4951657
 20
200.357945928
 10
-23660.7740707
 20
210.456171389
 10
-23746.0529717
 20
220.55443089
 10
-23831.3318689
 20
230.652723086
 10
-23916.6107625
 20
240.751046702
 10
-24001.8896525
 20
250.849400527
 10
-24087.1685391
 20
260.947783412
 10
-24172.4474225
 20
271.046194265
 10
-24257.7263027
 20
281.144632047
 10
-24343.0051799
 20
291.243095771
 10
-24428.2840541
 20
301.341584498
  0
LWPOLYLINE
  5
1af
330
1F
100
AcDbEntity
  8
main_beam_width
100
AcDbPolyline
 90
10
 70
0
43
0.0
 10
-19462.0730156
 20
214.586536375
 10
-19473.135105
 20
214.554728355
 10
-19484.1971944
 20
214.522920137
 10
-19495.2592839
 20
214.49111172
 10
-19506.3213733
 20
214.459303104
 10
-19517.3834627
 20
214.427494289
 10
-19528.4455521
 20
214.395685276
 10
-19539.5076416
 20
214.363876064
 10
-19550.569731
 20
214.332066653
 10
-19561.6318204
 20
214.300257043
  0
LWPOLYLINE
  5
1b0
330
1F
100
AcDbEntity
  8
main_beam_width
100
AcDbPolyline
 90
10
 70
0
43
0.0
 10
-19462.1418862
 20
238.847241784
 10
-19473.2981401
 20
238.815980407
 10
-19484.4543939
 20
238.784719231
 10
-19495.6106477
 20
238.753458258
 10
-19506.7669015
 20
238.722197488
 10
-19517.9231554
 20
238.690936919
 10
-19529.0794092
 20
238.659676553
 10
-19540.235663
 20
238.628416388
 10
-19551.3919169
 20
238.597156426
 10
-19562.5481707
 20
238.565896666
  0
LWPOLYLINE
  5
1b1
330
1F
100
AcDbEntity
  8
main_beam_width
100
AcDbPolyline
 90
10
 70
0
43
0.0
 10
-19562.5480938
 20
238.563859261
 10
-19551.3918485
 20
238.595345399
 10
-19540.2356032
 20
238.626831739
 10
-19529.0793579
 20
238.658318282
 10
-19517.9231126
 20
238.689805027
 10
-19506.7668673
 20
238.721291974
 10
-19495.6106221
 20
238.752779123
 10
-19484.4543768
 20
238.784266474
 10
-19473.2981315
 20
238.815754028
 10
-19462.1418862
 20
238.847241784
  0
LWPOLYLINE
  5
1b2
330
1F
100
AcDbEntity
  8
main_beam_width
100
AcDbPolyline
 90
10
 70
0
43
0.0
 10
-19561.6318967
 20
214.30227725
 10
-19550.5697988
 20
214.333862392
 10
-19539.5077009
 20
214.365447336
 10
-19528.445603
 20
214.397032081
 10
-19517.3835051
 20
214.428616627
 10
-19506.3214072
 20
214.460200974
 10
-19495.2593093
 20
214.491785123
 10
-19484.1972114
 20
214.523369072
 10
-19473.1351135
 20
214.554952823
 10
-19462.0730156
 20
214.586536375
  0
LWPOLYLINE
  5
1b3
330
1F
100
AcDbEntity
  8
main_beam_width
100
AcDbPolyline
 90
10
 70
0
43
0.0
 10
-24428.2840903
 20
301.341032993
 10
-23887.6468077
 20
294.361881458
 10
-23347.0095127
 20
287.383697096
 10
-22806.3722051
 20
280.406484735
 10
-22265.734885
 20
273.430249002
 10
-21725.0975523
 20
266.454994317
 10
-21184.4602069
 20
259.48072489
 10
-20643.8228487
 20
252.507444714
 10
-20103.1854778
 20
245.535157561
 10
-19562.5480941
 20
238.563866978
  0
LWPOLYLINE
  5
1b4
330
1F
100
AcDbEntity
  8
main_beam_width
100
AcDbPolyline
 90
10
 70
0
43
0.0
 10
-24429.8693983
 20
276.798559429
 10
-23888.95407
 20
269.858443802
 10
-23348.0387541
 20
262.917360019
 10
-22807.1234508
 20
255.975303242
 10
-22266.2081601
 20
249.032268839
 10
-21725.292882
 20
242.088252381
 10
-21184.3776166
 20
235.143249653
 10
-20643.4623639
 20
228.197256655
 10
-20102.547124
 20
221.25026961
 10
-19561.631897
 20
214.302284966
  0
LWPOLYLINE
  5
1b5
330
1F
100
AcDbEntity
  8
main_beam_width
100
AcDbPolyline
 90
10
 70
0
43
0.0
 10
-19561.631821
 20
214.300274256
 10
-20102.5480817
 20
221.232346541
 10
-20643.4643552
 20
228.163425629
 10
-21184.3806413
 20
235.093518924
 10
-21725.29694
 20
242.022633993
 10
-22266.2132513
 20
248.950778559
 10
-22807.1295749
 20
255.877960494
 10
-23348.0459107
 20
262.804187806
 10
-23888.9622588
 20
269.729468635
 10
-24429.878619
 20
276.653811245
  0
LWPOLYLINE
  5
1b6
330
1F
100
AcDbEntity
  8
main_beam_width
100
AcDbPolyline
 90
10
 70
0
43
0.0
 10
-19562.5481714
 20
238.56591388
 10
-20103.1844929
 20
245.553108186
 10
-20643.8208017
 20
252.541294653
 10
-21184.4570978
 20
259.530465886
 10
-21725.0933813
 20
266.520614329
 10
-22265.7296523
 20
273.511732272
 10
-22806.365911
 20
280.503811856
 10
-23347.0021574
 20
287.496845084
 10
-23887.6383916
 20
294.490823829
 10
-24428.2746138
 20
301.485739841
  0
LWPOLYLINE
  5
1b7
330
1F
100
AcDbEntity
  8
main_beam_width
100
AcDbPolyline
 90
36
 70
0
43
0.0
 10
-24428.2745768
 20
301.486304638
 10
-24342.995608
 20
291.388521734
 10
-24257.7166363
 20
281.290762953
 10
-24172.4376618
 20
271.193029188
 10
-24087.1586842
 20
261.095321372
 10
-24001.8797035
 20
250.997640491
 10
-23916.6007195
 20
240.899987577
 10
-23831.3217322
 20
230.802363715
 10
-23746.0427413
 20
220.70477005
 10
-23660.7637467
 20
210.607207785
 10
-23575.4847483
 20
200.509678187
 10
-23490.205746
 20
190.412182595
 10
-23404.9267395
 20
180.314722419
 10
-23319.6477288
 20
170.217299148
 10
-23234.3687135
 20
160.119914356
 10
-23149.0896936
 20
150.022569707
 10
-23063.8106687
 20
139.925266963
 10
-22978.5316388
 20
129.828007987
 10
-22893.2526035
 20
119.730794758
 10
-22807.9735627
 20
109.633629372
 10
-22722.694516
 20
99.5365140539
 10
-22637.4154632
 20
89.439451171
 10
-22552.1364039
 20
79.3424432389
 10
-22466.857338
 20
69.2454929364
 10
-22381.578265
 20
59.1486031181
 10
-22296.2991846
 20
49.0517768289
 10
-22211.0200963
 20
38.9550173203
 10
-22125.7409999
 20
28.8583280676
 10
-22040.4618949
 20
18.7617127899
 10
-21955.1827808
 20
8.6651754713
 10
-21869.903657
 20
-1.43127961518
 10
-21784.6245232
 20
-11.5276478811
 10
-21699.3453786
 20
-21.6239243931
 10
-21614.0662228
 20
-31.7201038406
 10
-21528.7870549
 20
-41.8161804989
 10
-21443.5078743
 20
-51.9121481887
  0
LWPOLYLINE
  5
1b8
330
1F
100
AcDbEntity
  8
main_beam_width
100
AcDbPolyline
 90
36
 70
0
43
0.0
 10
-24429.8785818
 20
276.654394386
 10
-24344.5845163
 20
266.852123509
 10
-24259.2904535
 20
257.049828507
 10
-24173.9963937
 20
247.247508488
 10
-24088.7023369
 20
237.445162516
 10
-24003.4082832
 20
227.642789608
 10
-23918.1142328
 20
217.840388732
 10
-23832.8201858
 20
208.0379588
 10
-23747.5261423
 20
198.23549867
 10
-23662.2321025
 20
188.433007138
 10
-23576.9380665
 20
178.630482935
 10
-23491.6440344
 20
168.827924725
 10
-23406.3500065
 20
159.025331098
 10
-23321.0559829
 20
149.222700562
 10
-23235.7619638
 20
139.420031545
 10
-23150.4679493
 20
129.617322383
 10
-23065.1739398
 20
119.814571314
 10
-22979.8799354
 20
110.011776474
 10
-22894.5859363
 20
100.208935886
 10
-22809.2919427
 20
90.4060474532
 10
-22723.9979551
 20
80.6031089491
 10
-22638.7039735
 20
70.8001180084
 10
-22553.4099984
 20
60.9970721148
 10
-22468.1160299
 20
51.1939685897
 10
-22382.8220686
 20
41.3908045787
 10
-22297.5281146
 20
31.5875770369
 10
-22212.2341684
 20
21.7842827132
 10
-22126.9402305
 20
11.9809181321
 10
-22041.6463011
 20
2.177479575
 10
-21956.3523809
 20
-7.62603694203
 10
-21871.0584702
 20
-17.4296356917
 10
-21785.7645697
 20
-27.2333212623
 10
-21700.4706799
 20
-37.0370985864
 10
-21615.1768014
 20
-46.8409729745
 10
-21529.8829349
 20
-56.6449501506
 10
-21444.5890811
 20
-66.4490362934
  0
LWPOLYLINE
  5
1b9
330
1F
100
AcDbEntity
  8
main_beam_width
100
AcDbPolyline
 90
10
 70
0
43
0.0
 10
-27252.3076617
 20
143.78249181
 10
-27251.2308464
 20
140.083252835
 10
-27250.154031
 20
136.384013881
 10
-27249.0772155
 20
132.684774948
 10
-27248.0004
 20
128.985536034
 10
-27246.9235844
 20
125.286297141
 10
-27245.8467687
 20
121.587058268
 10
-27244.769953
 20
117.887819415
 10
-27243.6931372
 20
114.188580583
 10
-27242.6163213
 20
110.489341771
  0
LWPOLYLINE
  5
1ba
330
1F
100
AcDbEntity
  8
main_beam_width
100
AcDbPolyline
 90
10
 70
0
43
0.0
 10
-27265.8364558
 20
130.124983622
 10
-27264.7291839
 20
126.320672099
 10
-27263.6219121
 20
122.516360555
 10
-27262.5146403
 20
118.712048989
 10
-27261.4073687
 20
114.907737402
 10
-27260.3000971
 20
111.103425793
 10
-27259.1928256
 20
107.299114163
 10
-27258.0855541
 20
103.494802512
 10
-27256.9782828
 20
99.6904908385
 10
-27255.8710115
 20
95.8861791441
  0
LWPOLYLINE
  5
1bb
330
1F
100
AcDbEntity
  8
main_beam_width
100
AcDbPolyline
 90
10
 70
0
43
0.0
 10
-27233.1301487
 20
120.940594804
 10
-27236.7641828
 20
121.961082719
 10
-27240.3982168
 20
122.981570566
 10
-27244.0322509
 20
124.002058347
 10
-27247.666285
 20
125.02254606
 10
-27251.3003191
 20
126.043033707
 10
-27254.9343532
 20
127.063521286
 10
-27258.5683874
 20
128.084008799
 10
-27262.2024216
 20
129.104496244
 10
-27265.8364558
 20
130.124983622
  0
LWPOLYLINE
  5
1bc
330
1F
100
AcDbEntity
  8
main_beam_width
100
AcDbPolyline
 90
10
 70
0
43
0.0
 10
-27220.5045496
 20
134.850665503
 10
-27224.0382288
 20
135.843090395
 10
-27227.571908
 20
136.83551535
 10
-27231.1055871
 20
137.827940368
 10
-27234.6392663
 20
138.82036545
 10
-27238.1729454
 20
139.812790595
 10
-27241.7066245
 20
140.805215803
 10
-27245.2403036
 20
141.797641075
 10
-27248.7739826
 20
142.790066411
 10
-27252.3076617
 20
143.78249181
  0
LWPOLYLINE
  5
1bd
330
1F
100
AcDbEntity
  8
main_beam_width
100
AcDbPolyline
 90
10
 70
0
43
0.0
 10
-21444.5890998
 20
-66.4492896034
 10
-22087.7594572
 20
-45.6009829087
 10
-22730.9300295
 20
-24.7593207947
 10
-23374.1008199
 20
-3.92439943846
 10
-24017.271831
 20
16.9037023593
 10
-24660.4430646
 20
37.724924261
 10
-25303.6145221
 20
58.5392252433
 10
-25946.7862042
 20
79.3465841856
 10
-26589.9581109
 20
100.147000176
 10
-27233.1302416
 20
120.940492523
  0
LWPOLYLINE
  5
1be
330
1F
100
AcDbEntity
  8
main_beam_width
100
AcDbPolyline
 90
10
 70
0
43
0.0
 10
-21443.5078926
 20
-51.9123910332
 10
-22085.3972973
 20
-31.1880615922
 10
-22727.2864879
 20
-10.4571143672
 10
-23369.1754614
 20
10.2805463105
 10
-24011.0642151
 20
31.0249988773
 10
-24652.9527472
 20
51.7763034599
 10
-25294.8410563
 20
72.5345010308
 10
-25936.7291417
 20
93.2996128229
 10
-26578.6170034
 20
114.071640023
 10
-27220.5046419
 20
134.850563756
  0
LWPOLYLINE
  5
1bf
330
1F
100
AcDbEntity
  8
main_beam_width
100
AcDbPolyline
 90
10
 70
0
43
0.0
 10
-27242.6164874
 20
110.489158788
 10
-27245.6388557
 20
-1.41200981735
 10
-27248.6609368
 20
-113.313186186
 10
-27251.6827314
 20
-225.214370305
 10
-27254.7042399
 20
-337.11556216
 10
-27257.7254628
 20
-449.016761735
 10
-27260.7464009
 20
-560.917969013
 10
-27263.7670548
 20
-672.819183977
 10
-27266.7874251
 20
-784.720406608
 10
-27269.8075126
 20
-896.621636887
  0
LWPOLYLINE
  5
1c0
330
1F
100
AcDbEntity
  8
main_beam_width
100
AcDbPolyline
 90
10
 70
0
43
0.0
 10
-27255.8711788
 20
95.8859947993
 10
-27258.8555663
 20
-14.3538035296
 10
-27261.8402324
 20
-124.593594325
 10
-27264.8251766
 20
-234.8333776
 10
-27267.8103984
 20
-345.073153369
 10
-27270.7958973
 20
-455.312921646
 10
-27273.7816726
 20
-565.552682448
 10
-27276.7677237
 20
-675.792435792
 10
-27279.75405
 20
-786.032181695
 10
-27282.7406508
 20
-896.271920175
  0
LWPOLYLINE
  5
1c1
330
1F
100
AcDbEntity
  8
main_beam_width
100
AcDbPolyline
 90
10
 70
0
43
0.0
 10
-19462.1418862
 20
238.847241784
 10
-19351.0312192
 20
239.16137327
 10
-19239.9205522
 20
239.475546932
 10
-19128.8098854
 20
239.789762783
 10
-19017.6992187
 20
240.104020835
 10
-18906.5885521
 20
240.418321101
 10
-18795.4778856
 20
240.732663592
 10
-18684.3672193
 20
241.047048319
 10
-18573.2565531
 20
241.361475293
 10
-18462.145887
 20
241.675944526
  0
LWPOLYLINE
  5
1c2
330
1F
100
AcDbEntity
  8
main_beam_width
100
AcDbPolyline
 90
10
 70
0
43
0.0
 10
-19462.0730156
 20
214.586536375
 10
-19350.9623558
 20
214.903240935
 10
-19239.8516959
 20
215.219903319
 10
-19128.7410359
 20
215.536523514
 10
-19017.6303758
 20
215.853101508
 10
-18906.5197156
 20
216.169637288
 10
-18795.4090552
 20
216.486130843
 10
-18684.2983947
 20
216.802582162
 10
-18573.1877341
 20
217.118991234
 10
-18462.0770734
 20
217.435358048
  0
LWPOLYLINE
  5
1c3
330
1F
100
AcDbEntity
  8
main_beam_width
100
AcDbPolyline
 90
10
 70
0
43
0.0
 10
-27755.4135432
 20
143.355667645
 10
-27699.559962
 20
143.35528885
 10
-27643.7063808
 20
143.354980938
 10
-27587.8527996
 20
143.354743916
 10
-27531.9992184
 20
143.354577788
 10
-27476.1456371
 20
143.354482557
 10
-27420.2920559
 20
143.354458221
 10
-27364.4384747
 20
143.354504779
 10
-27308.5848935
 20
143.354622226
 10
-27252.7313123
 20
143.354810554
  0
LWPOLYLINE
  5
1c4
330
1F
100
AcDbEntity
  8
main_beam_width
100
AcDbPolyline
 90
10
 70
0
43
0.0
 10
-27742.6354348
 20
130.455963805
 10
-27689.6214429
 20
130.45611689
 10
-27636.607451
 20
130.456206116
 10
-27583.5934591
 20
130.456231475
 10
-27530.5794672
 20
130.456192966
 10
-27477.5654753
 20
130.456090586
 10
-27424.5514833
 20
130.455924335
 10
-27371.5374914
 20
130.455694215
 10
-27318.5234995
 20
130.455400231
 10
-27265.5095076
 20
130.455042388
  0
LWPOLYLINE
  5
1c5
330
1F
100
AcDbEntity
  8
main_beam_width
100
AcDbPolyline
 90
15
 70
0
43
0.0
 10
-27265.5095076
 20
130.455042388
 10
-27283.4234544
 20
2016.54380328
 10
-27301.4161254
 20
3902.63181857
 10
-27319.4830503
 20
5788.71913059
 10
-27337.6178473
 20
7674.8057998
 10
-27355.8130861
 20
9560.89189655
 10
-27374.0610749
 20
11446.9774937
 10
-27392.3544389
 20
13333.0626611
 10
-27410.6864673
 20
15219.1474623
 10
-27429.0512658
 20
17105.2319532
 10
-27447.4437796
 20
18991.3161815
 10
-27465.859739
 20
20877.4001878
 10
-27484.2955702
 20
22763.4840059
 10
-27502.7482969
 20
24649.567664
 10
-27521.2154438
 20
26535.6511855
  0
LWPOLYLINE
  5
1c6
330
1F
100
AcDbEntity
  8
main_beam_width
100
AcDbPolyline
 90
15
 70
0
43
0.0
 10
-27252.7313123
 20
143.354810554
 10
-27270.5346454
 20
2028.51552453
 10
-27288.259352
 20
3913.67698318
 10
-27305.9099098
 20
5798.8391441
 10
-27323.4926998
 20
7684.00194685
 10
-27341.0151442
 20
9569.16532114
 10
-27358.4849234
 20
11454.3291942
 10
-27375.9093991
 20
13339.4934964
 10
-27393.2952697
 20
15224.6581642
 10
-27410.6484178
 20
17109.8231419
 10
-27427.973889
 20
18994.9883817
 10
-27445.275945
 20
20880.1538433
 10
-27462.5581531
 20
22765.3194929
 10
-27479.8234848
 20
24650.4853023
 10
-27497.0744113
 20
26535.6512482
  0
LWPOLYLINE
  5
1c7
330
1F
100
AcDbEntity
  8
main_beam_width
100
AcDbPolyline
 90
15
 70
0
43
0.0
 10
-27497.0743743
 20
26535.6512482
 10
-27515.5272488
 20
24650.024679
 10
-27533.9657106
 20
22764.3979734
 10
-27552.3872865
 20
20878.771108
 10
-27570.7890025
 20
18993.1440546
 10
-27589.1672882
 20
17107.5167793
 10
-27607.5178778
 20
15221.889242
 10
-27625.8357211
 20
13336.2613946
 10
-27644.1149296
 20
11450.6331815
 10
-27662.3487987
 20
9565.00453928
 10
-27680.5299602
 20
7679.37539811
 10
-27698.6507279
 20
5793.74568526
 10
-27716.7036755
 20
3908.11533043
 10
-27734.6824214
 20
2022.48427322
 10
-27752.5824917
 20
136.85247128
  0
LWPOLYLINE
  5
1c8
330
1F
100
AcDbEntity
  8
main_beam_width
100
AcDbPolyline
 90
15
 70
0
43
0.0
 10
-27521.2154069
 20
26535.6511855
 10
-27538.4607074
 20
24650.0295126
 10
-27555.7204206
 20
22764.4079762
 10
-27572.9970197
 20
20878.7865996
 10
-27590.2934786
 20
18993.165411
 10
-27607.6133679
 20
17107.5444442
 10
-27624.9609531
 20
15221.9237395
 10
-27642.3412844
 20
13336.3033448
 10
-27659.7602501
 20
11450.6833159
 10
-27677.2245549
 20
9565.06371608
 10
-27694.7415667
 20
7679.44461521
 10
-27712.3189715
 20
5793.826086
 10
-27729.9641955
 20
3908.20819877
 10
-27747.6836199
 20
2022.5910139
 10
-27765.4817186
 20
136.974573762
  0
LWPOLYLINE
  5
1c9
330
1F
100
AcDbEntity
  8
main_beam_width
100
AcDbPolyline
 90
10
 70
0
43
0.0
 10
-27742.6354348
 20
130.455963805
 10
-27743.74654
 20
130.455959913
 10
-27744.8576451
 20
130.455955994
 10
-27745.9687503
 20
130.455952046
 10
-27747.0798554
 20
130.45594807
 10
-27748.1909606
 20
130.455944066
 10
-27749.3020657
 20
130.455940034
 10
-27750.4131708
 20
130.455935974
 10
-27751.524276
 20
130.455931886
 10
-27752.6353811
 20
130.45592777
  0
LWPOLYLINE
  5
1ca
330
1F
100
AcDbEntity
  8
main_beam_width
100
AcDbPolyline
 90
10
 70
0
43
0.0
 10
-27755.4135432
 20
143.355667645
 10
-27756.5246606
 20
143.3556759
 10
-27757.635778
 20
143.355684182
 10
-27758.7468954
 20
143.355692493
 10
-27759.8580128
 20
143.355700831
 10
-27760.9691302
 20
143.355709198
 10
-27762.0802476
 20
143.355717593
 10
-27763.191365
 20
143.355726016
 10
-27764.3024824
 20
143.355734467
 10
-27765.4135998
 20
143.355742946
  0
LWPOLYLINE
  5
1cb
330
1F
100
AcDbEntity
  8
main_beam_width
100
AcDbPolyline
 90
15
 70
0
43
0.0
 10
-27765.4135998
 20
143.355742946
 10
-27747.6136971
 20
2028.51638873
 10
-27729.8924208
 20
3913.67777906
 10
-27712.2452932
 20
5798.83987151
 10
-27694.6659332
 20
7684.00260567
 10
-27677.1469186
 20
9569.16591126
 10
-27659.6805689
 20
11454.3297155
 10
-27642.2595227
 20
13339.4939488
 10
-27624.8770813
 20
15224.6585477
 10
-27607.5273623
 20
17109.8234564
 10
-27590.2053201
 20
18994.9886271
 10
-27572.906693
 20
20880.1540196
 10
-27555.6279137
 20
22765.3196001
 10
-27538.3660108
 20
24650.4853403
 10
-27521.1185129
 20
26535.651217
  0
LWPOLYLINE
  5
1cc
330
1F
100
AcDbEntity
  8
main_beam_width
100
AcDbPolyline
 90
15
 70
0
43
0.0
 10
-27752.6353811
 20
130.45592777
 10
-27734.7248624
 20
2016.54462702
 10
-27716.7356194
 20
3902.63258082
 10
-27698.6721227
 20
5788.71983148
 10
-27680.5407541
 20
7674.80643945
 10
-27662.3489439
 20
9560.89247508
 10
-27644.1043839
 20
11446.9780112
 10
-27625.8144488
 20
13333.0631177
 10
-27607.4858496
 20
15219.147858
 10
-27589.1244803
 20
17105.2322881
 10
-27570.7353959
 20
18991.3164556
 10
-27552.322866
 20
20877.4004012
 10
-27533.8904643
 20
22763.4841586
 10
-27515.4411673
 20
24649.5677561
 10
-27496.9774501
 20
26535.6512169
  0
LWPOLYLINE
  5
1cd
330
1F
100
AcDbEntity
  8
main_beam_width
100
AcDbPolyline
 90
15
 70
0
43
0.0
 10
-27496.9774871
 20
26535.651217
 10
-27479.7258438
 20
24650.0324195
 10
-27462.4597879
 20
22764.4137585
 10
-27445.1768463
 20
20878.7952574
 10
-27427.8740449
 20
18993.1769443
 10
-27410.5478134
 20
17107.5588531
 10
-27393.1938862
 20
15221.9410242
 10
-27375.807213
 20
13336.3235053
 10
-27358.3819057
 20
11450.7063523
 10
-27340.9112597
 20
9565.08962864
 10
-27323.3879069
 20
7679.47340404
 10
-27305.8041613
 20
5793.85775132
 10
-27288.1525969
 20
3908.24274079
 10
-27270.4268323
 20
2022.62843289
 10
-27252.6223934
 20
137.014869966
  0
LWPOLYLINE
  5
1ce
330
1F
100
AcDbEntity
  8
main_beam_width
100
AcDbPolyline
 90
15
 70
0
43
0.0
 10
-27521.1185499
 20
26535.6512169
 10
-27502.6593319
 20
24650.0275259
 10
-27484.2145265
 20
22764.4036983
 10
-27465.7866069
 20
20878.7797109
 10
-27447.378547
 20
18993.1555354
 10
-27428.9939173
 20
17107.531138
 10
-27410.6369835
 20
15221.9064784
 10
-27392.3127958
 20
13336.2815087
 10
-27374.0272425
 20
11450.6561732
 10
-27355.7870284
 20
9565.03040829
 10
-27337.5995217
 20
7679.40414432
 10
-27319.4724084
 20
5793.77730846
 10
-27301.413115
 20
3908.14983041
 10
-27283.428023
 20
2022.52164972
 10
-27265.5216066
 20
136.892724034
  0
CIRCLE
  5
1d0
330
1F
100
AcDbEntity
  8
Vacuum
100
AcDbCircle
 10
-19512.0901964
 20
226.574999379
 30
0.0
  40
750.0
  0
LWPOLYLINE
  5
1d1
330
1F
100
AcDbEntity
  8
Vacuum
100
AcDbPolyline
 90
5
 70
0
43
0.0
 10
-20362.0901964
 20
619.074999379
 10
-18662.0901964
 20
619.074999379
 10
-18662.0901964
 20
-165.925000621
 10
-20362.0901964
 20
-165.925000621
 10
-20362.0901964
 20
619.074999379
  0
CIRCLE
  5
1d2
330
1F
100
AcDbEntity
  8
Vacuum
100
AcDbCircle
 10
-4648.14247562
 20
269.304550668
 30
0.0
  40
750.0
  0
LWPOLYLINE
  5
1d3
330
1F
100
AcDbEntity
  8
Vacuum
100
AcDbPolyline
 90
5
 70
0
43
0.0
 10
-5498.14247562
 20
501.804550668
 10
-3798.14247562
 20
501.804550668
 10
-3798.14247562
 20
-283.195449332
 10
-5498.14247562
 20
-283.195449332
 10
-5498.14247562
 20
501.804550668
  0
CIRCLE
  5
1d4
330
1F
100
AcDbEntity
  8
Vacuum
100
AcDbCircle
 10
-15813.4545987
 20
11.6583013092
 30
0.0
  40
750.0
  0
LWPOLYLINE
  5
1d5
330
1F
100
AcDbEntity
  8
Vacuum
100
AcDbPolyline
 90
5
 70
0
43
0.0
 10
-16663.4545987
 20
564.158301309
 10
-14963.4545987
 20
564.158301309
 10
-14963.4545987
 20
-220.841698691
 10
-16663.4545987
 20
-220.841698691
 10
-16663.4545987
 20
564.158301309
  0
LINE
  5
1d6
330
1F
100
AcDbEntity
  8
Vacuum
100
AcDbLine
 10
-18662.0901964
 20
619.074999379
 30
0.0
  11
-16663.4545987
 21
564.158301309
 31
0.0
  0
LINE
  5
1d7
330
1F
100
AcDbEntity
  8
Vacuum
100
AcDbLine
 10
-18662.0901964
 20
-165.925000621
 30
0.0
  11
-16663.4545987
 21
-220.841698691
 31
0.0
  0
LINE
  5
1d8
330
1F
100
AcDbEntity
  8
Vacuum
100
AcDbLine
 10
-14963.4545987
 20
564.158301309
 30
0.0
  11
-5498.14247562
 21
501.804550668
 31
0.0
  0
LINE
  5
1d9
330
1F
100
AcDbEntity
  8
Vacuum
100
AcDbLine
 10
-14963.4545987
 20
-220.841698691
 30
0.0
  11
-5498.14247562
 21
-283.195449332
 31
0.0
  0
CIRCLE
  5
1da
330
1F
100
AcDbEntity
  8
Vacuum
100
AcDbCircle
 10
28.2779650527
 20
-28.2905760365
 30
0.0
  40
750.0
  0
LWPOLYLINE
  5
1db
330
1F
100
AcDbEntity
  8
Vacuum
100
AcDbPolyline
 90
5
 70
0
43
0.0
 10
-821.722034947
 20
364.209423964
 10
878.277965053
 20
364.209423964
 10
878.277965053
 20
-420.790576036
 10
-821.722034947
 20
-420.790576036
 10
-821.722034947
 20
364.209423964
  0
LWPOLYLINE
  5
1dc
330
1F
100
AcDbEntity
  8
Vacuum
100
AcDbPolyline
 90
5
 70
0
43
0.0
 10
-364.222034947
 20
821.709423964
 10
420.777965053
 20
821.709423964
 10
420.777965053
 20
-878.290576036
 10
-364.222034947
 20
-878.290576036
 10
-364.222034947
 20
821.709423964
  0
LINE
  5
1dd
330
1F
100
AcDbEntity
  8
Vacuum
100
AcDbLine
 10
-3798.14247562
 20
501.804550668
 30
0.0
  11
-821.722034947
 21
364.209423964
 31
0.0
  0
LINE
  5
1de
330
1F
100
AcDbEntity
  8
Vacuum
100
AcDbLine
 10
-3798.14247562
 20
-283.195449332
 30
0.0
  11
-821.722034947
 21
-420.790576036
 31
0.0
  0
CIRCLE
  5
1df
330
1F
100
AcDbEntity
  8
Vacuum
100
AcDbCircle
 10
265.171145199
 20
-19376.4355913
 30
0.0
  40
750.0
  0
LWPOLYLINE
  5
1e0
330
1F
100
AcDbEntity
  8
Vacuum
100
AcDbPolyline
 90
5
 70
0
43
0.0
 10
-127.328854801
 20
-18526.4355913
 10
657.671145199
 20
-18526.4355913
 10
657.671145199
 20
-20226.4355913
 10
-127.328854801
 20
-20226.4355913
 10
-127.328854801
 20
-18526.4355913
  0
CIRCLE
  5
1e1
330
1F
100
AcDbEntity
  8
Vacuum
100
AcDbCircle
 10
298.140858953
 20
-4532.65181384
 30
0.0
  40
750.0
  0
LWPOLYLINE
  5
1e2
330
1F
100
AcDbEntity
  8
Vacuum
100
AcDbPolyline
 90
5
 70
0
43
0.0
 10
-254.359141047
 20
-3682.65181384
 10
530.640858953
 20
-3682.65181384
 10
530.640858953
 20
-5382.65181384
 10
-254.359141047
 20
-5382.65181384
 10
-254.359141047
 20
-3682.65181384
  0
CIRCLE
  5
1e3
330
1F
100
AcDbEntity
  8
Vacuum
100
AcDbCircle
 10
46.7147158387
 20
-15743.6344271
 30
0.0
  40
750.0
  0
LWPOLYLINE
  5
1e4
330
1F
100
AcDbEntity
  8
Vacuum
100
AcDbPolyline
 90
5
 70
0
43
0.0
 10
-345.785284161
 20
-14893.6344271
 10
439.214715839
 20
-14893.6344271
 10
439.214715839
 20
-16593.6344271
 10
-345.785284161
 20
-16593.6344271
 10
-345.785284161
 20
-14893.6344271
  0
LINE
  5
1e5
330
1F
100
AcDbEntity
  8
Vacuum
100
AcDbLine
 10
-127.328854801
 20
-18526.4355913
 30
0.0
  11
-345.785284161
 21
-16593.6344271
 31
0.0
  0
LINE
  5
1e6
330
1F
100
AcDbEntity
  8
Vacuum
100
AcDbLine
 10
657.671145199
 20
-18526.4355913
 30
0.0
  11
439.214715839
 21
-16593.6344271
 31
0.0
  0
LINE
  5
1e7
330
1F
100
AcDbEntity
  8
Vacuum
100
AcDbLine
 10
-345.785284161
 20
-14893.6344271
 30
0.0
  11
-254.359141047
 21
-5382.65181384
 31
0.0
  0
LINE
  5
1e8
330
1F
100
AcDbEntity
  8
Vacuum
100
AcDbLine
 10
439.214715839
 20
-14893.6344271
 30
0.0
  11
530.640858953
 21
-5382.65181384
 31
0.0
  0
LINE
  5
1e9
330
1F
100
AcDbEntity
  8
Vacuum
100
AcDbLine
 10
-254.359141047
 20
-3682.65181384
 30
0.0
  11
-364.222034947
 21
-878.290576036
 31
0.0
  0
LINE
  5
1ea
330
1F
100
AcDbEntity
  8
Vacuum
100
AcDbLine
 10
530.640858953
 20
-3682.65181384
 30
0.0
  11
420.777965053
 21
-878.290576036
 31
0.0
  0
CIRCLE
  5
1eb
330
1F
100
AcDbEntity
  8
Vacuum
100
AcDbCircle
 10
26432.1160223
 20
-16.3807284905
 30
0.0
  40
1250.0
  0
LWPOLYLINE
  5
1ec
330
1F
100
AcDbEntity
  8
Vacuum
100
AcDbPolyline
 90
5
 70
0
43
0.0
 10
25082.1160223
 20
376.119271509
 10
27782.1160223
 20
376.119271509
 10
27782.1160223
 20
-408.880728491
 10
25082.1160223
 20
-408.880728491
 10
25082.1160223
 20
376.119271509
  0
CIRCLE
  5
1ed
330
1F
100
AcDbEntity
  8
Vacuum
100
AcDbCircle
 10
-7.59055707329
 20
23146.9789127
 30
0.0
  40
1250.0
  0
LWPOLYLINE
  5
1ee
330
1F
100
AcDbEntity
  8
Vacuum
100
AcDbPolyline
 90
5
 70
0
43
0.0
 10
-400.090557073
 20
24496.9789127
 10
384.909442927
 20
24496.9789127
 10
384.909442927
 20
21796.9789127
 10
-400.090557073
 20
21796.9789127
 10
-400.090557073
 20
24496.9789127
  0
LINE
  5
1ef
330
1F
100
AcDbEntity
  8
Vacuum
100
AcDbLine
 10
878.277965053
 20
364.209423964
 30
0.0
  11
25082.1160223
 21
376.119271509
 31
0.0
  0
LINE
  5
1f0
330
1F
100
AcDbEntity
  8
Vacuum
100
AcDbLine
 10
878.277965053
 20
-420.790576036
 30
0.0
  11
25082.1160223
 21
-408.880728491
 31
0.0
  0
LINE
  5
1f1
330
1F
100
AcDbEntity
  8
Vacuum
100
AcDbLine
 10
-364.222034947
 20
821.709423964
 30
0.0
  11
-400.090557073
 21
21796.9789127
 31
0.0
  0
LINE
  5
1f2
330
1F
100
AcDbEntity
  8
Vacuum
100
AcDbLine
 10
420.777965053
 20
821.709423964
 30
0.0
  11
384.909442927
 21
21796.9789127
 31
0.0
  0
CIRCLE
  5
1f3
330
1F
100
AcDbEntity
  8
Vacuum
100
AcDbCircle
 10
-27509.048
 20
76.9616
 30
0.0
  40
750.0
  0
CIRCLE
  5
1f4
330
1F
100
AcDbEntity
  8
Vacuum
100
AcDbCircle
 10
-27509.139
 20
26549.5616
 30
0.0
  40
750.0
  0
CIRCLE
  5
1f5
330
1F
100
AcDbEntity
  8
Vacuum
100
AcDbCircle
 10
-21594.048
 20
126.9616
 30
0.0
  40
600.0
  0
CIRCLE
  5
1f6
330
1F
100
AcDbEntity
  8
Vacuum
100
AcDbCircle
 10
-24279.049
 20
126.9616
 30
0.0
  40
600.0
  0
LWPOLYLINE
  5
1f7
330
1F
100
AcDbEntity
  8
Vacuum
100
AcDbPolyline
 90
4
 70
0
43
0.0
 10
-21010.4584469
 20
-21.1033638943
 10
-20963.1825181
 20
-37.3817716172
 10
-20995.7393336
 20
-131.933629177
 10
-21043.0152624
 20
-115.655221454
  0
LWPOLYLINE
  5
1f8
330
1F
100
AcDbEntity
  8
Vacuum
100
AcDbPolyline
 90
4
 70
0
43
0.0
 10
-21954.4019633
 20
609.294494482
 10
-21980.8979266
 20
651.69689929
 10
-21896.0931169
 20
704.688825713
 10
-21869.5971537
 20
662.286420906
  0
LWPOLYLINE
  5
1f9
330
1F
100
AcDbEntity
  8
Vacuum
100
AcDbPolyline
 90
4
 70
0
43
0.0
 10
-21731.9053708
 20
-459.123159496
 10
-21747.3562205
 20
-506.675985311
 10
-21842.4618722
 20
-475.774285873
 10
-21827.0110224
 20
-428.221460058
  0
LWPOLYLINE
  5
1fa
330
1F
100
AcDbEntity
  8
Vacuum
100
AcDbPolyline
 90
4
 70
0
43
0.0
 10
-21287.1026131
 20
647.717569207
 10
-21256.6645417
 20
687.385236221
 10
-21140.0416006
 20
597.897306157
 10
-21170.4796721
 20
558.229639143
  0
LWPOLYLINE
  5
1fb
330
1F
100
AcDbEntity
  8
Vacuum
100
AcDbPolyline
 90
4
 70
0
43
0.0
 10
-24110.7072516
 20
705.028253376
 10
-24092.7888541
 20
751.7072747
 10
-23999.4308115
 20
715.870479746
 10
-24017.3492089
 20
669.191458421
  0
LWPOLYLINE
  5
1fc
330
1F
100
AcDbEntity
  8
Vacuum
100
AcDbPolyline
 90
4
 70
0
43
0.0
 10
-23902.0813793
 20
-342.501298359
 10
-23874.1217341
 20
-383.953176987
 10
-23957.0254914
 20
-439.872467334
 10
-23984.9851365
 20
-398.420588707
  0
LWPOLYLINE
  5
1fd
330
1F
100
AcDbEntity
  8
Vacuum
100
AcDbPolyline
 90
4
 70
0
43
0.0
 10
-24785.9205552
 20
456.329899243
 10
-24824.2227773
 20
488.469279727
 10
-24729.7329987
 20
601.077812865
 10
-24691.4307766
 20
568.938432381
  0
LWPOLYLINE
  5
1fe
330
1F
100
AcDbEntity
  8
Vacuum
100
AcDbPolyline
 90
4
 70
0
43
0.0
 10
-24651.3407203
 20
-349.274817129
 10
-24686.6960594
 20
-384.630156188
 10
-24790.6407562
 20
-280.685459354
 10
-24755.2854171
 20
-245.330120295
  0
LWPOLYLINE
  5
21f
330
1F
100
AcDbEntity
  8
stray_beam_width
100
AcDbPolyline
 90
10
 70
0
43
0.0
 10
-27771.2186485
 20
105.741910029
 10
-27767.1872874
 20
106.502644691
 10
-27763.1559263
 20
107.263379389
 10
-27759.1245652
 20
108.024114123
 10
-27755.0932041
 20
108.784848892
 10
-27751.061843
 20
109.545583696
 10
-27747.030482
 20
110.306318537
 10
-27742.9991209
 20
111.067053412
 10
-27738.9677598
 20
111.827788324
 10
-27734.9363988
 20
112.58852327
  0
LWPOLYLINE
  5
220
330
1F
100
AcDbEntity
  8
stray_beam_width
100
AcDbPolyline
 90
10
 70
0
43
0.0
 10
-27766.5822401
 20
100.633805041
 10
-27762.5112373
 20
101.402029531
 10
-27758.4402345
 20
102.170253986
 10
-27754.3692316
 20
102.938478404
 10
-27750.2982288
 20
103.706702786
 10
-27746.2272259
 20
104.474927132
 10
-27742.1562231
 20
105.243151441
 10
-27738.0852202
 20
106.011375715
 10
-27734.0142173
 20
106.779599952
 10
-27729.9432144
 20
107.547824152
  0
LWPOLYLINE
  5
221
330
1F
100
AcDbEntity
  8
stray_beam_width
100
AcDbPolyline
 90
10
 70
0
43
0.0
 10
-27729.9432144
 20
107.547824152
 10
-27730.2759668
 20
105.871762186
 10
-27730.6087192
 20
104.195700218
 10
-27730.9414715
 20
102.519638249
 10
-27731.2742239
 20
100.843576278
 10
-27731.6069763
 20
99.1675143065
 10
-27731.9397286
 20
97.4914523336
 10
-27732.272481
 20
95.8153903595
 10
-27732.6052333
 20
94.1393283842
 10
-27732.9379857
 20
92.4632664077
  0
LWPOLYLINE
  5
222
330
1F
100
AcDbEntity
  8
stray_beam_width
100
AcDbPolyline
 90
10
 70
0
43
0.0
 10
-27734.9363988
 20
112.58852327
 10
-27735.5433742
 20
109.5311767
 10
-27736.1503497
 20
106.473830133
 10
-27736.7573252
 20
103.416483571
 10
-27737.3643007
 20
100.359137013
 10
-27737.9712763
 20
97.3017904585
 10
-27738.5782518
 20
94.2444439083
 10
-27739.1852274
 20
91.1870973622
 10
-27739.792203
 20
88.1297508201
 10
-27740.3991787
 20
85.0724042821
  0
LWPOLYLINE
  5
223
330
1F
100
AcDbEntity
  8
stray_beam_width
100
AcDbPolyline
 90
10
 70
0
43
0.0
 10
-27789.1181778
 20
125.462492839
 10
-27817.6921308
 20
-94.6765105636
 10
-27846.2657263
 20
-314.815560359
 10
-27874.8389644
 20
-534.954656543
 10
-27903.4118453
 20
-755.093799092
 10
-27931.9843694
 20
-975.232987961
 10
-27960.5565371
 20
-1195.37222309
 10
-27989.128349
 20
-1415.51150439
 10
-28017.6998061
 20
-1635.65083176
 10
-28046.2709091
 20
-1855.79020507
  0
LWPOLYLINE
  5
224
330
1F
100
AcDbEntity
  8
stray_beam_width
100
AcDbPolyline
 90
10
 70
0
43
0.0
 10
-27793.5352203
 20
130.328914158
 10
-27822.1694818
 20
-90.2792720584
 10
-27850.8041022
 20
-310.887411684
 10
-27879.4390816
 20
-531.495504723
 10
-27908.0744197
 20
-752.103551199
 10
-27936.7101163
 20
-972.711551157
 10
-27965.3461707
 20
-1193.31950466
 10
-27993.9825823
 20
-1413.92741179
 10
-28022.6193504
 20
-1634.53527266
 10
-28051.2564741
 20
-1855.14308738
  0
LWPOLYLINE
  5
225
330
1F
100
AcDbEntity
  8
stray_beam_width
100
AcDbPolyline
 90
10
 70
0
43
0.0
 10
-27761.4383373
 20
139.34265219
 10
-27705.3569285
 20
139.34254632
 10
-27649.2755197
 20
139.342466917
 10
-27593.194111
 20
139.342413985
 10
-27537.1127022
 20
139.342387523
 10
-27481.0312934
 20
139.342387535
 10
-27424.9498846
 20
139.342414019
 10
-27368.8684758
 20
139.342466974
 10
-27312.7870671
 20
139.342546399
 10
-27256.7056583
 20
139.342652292
  0
LWPOLYLINE
  5
226
330
1F
100
AcDbEntity
  8
stray_beam_width
100
AcDbPolyline
 90
10
 70
0
43
0.0
 10
-27756.7056726
 20
134.564951767
 10
-27701.675968
 20
134.565053703
 10
-27646.6462635
 20
134.565130156
 10
-27591.616559
 20
134.565181122
 10
-27536.5868545
 20
134.565206599
 10
-27481.5571499
 20
134.565206588
 10
-27426.5274454
 20
134.565181088
 10
-27371.4977409
 20
134.5651301
 10
-27316.4680364
 20
134.565053625
 10
-27261.4383318
 20
134.564951667
  0
LWPOLYLINE
  5
227
330
1F
100
AcDbEntity
  8
stray_beam_width
100
AcDbPolyline
 90
10
 70
0
43
0.0
 10
-27256.7056617
 20
139.342648856
 10
-27253.1393408
 20
138.34112068
 10
-27249.5730199
 20
137.339592531
 10
-27246.006699
 20
136.338064412
 10
-27242.4403782
 20
135.336536321
 10
-27238.8740572
 20
134.335008258
 10
-27235.3077363
 20
133.333480223
 10
-27231.7414154
 20
132.331952217
 10
-27228.1750945
 20
131.330424239
 10
-27224.6087735
 20
130.32889629
  0
LWPOLYLINE
  5
228
330
1F
100
AcDbEntity
  8
stray_beam_width
100
AcDbPolyline
 90
10
 70
0
43
0.0
 10
-27261.4383352
 20
134.564948273
 10
-27257.8369451
 20
133.55356242
 10
-27254.235555
 20
132.542176538
 10
-27250.6341649
 20
131.530790627
 10
-27247.0327748
 20
130.519404687
 10
-27243.4313847
 20
129.508018718
 10
-27239.8299946
 20
128.496632721
 10
-27236.2286045
 20
127.485246694
 10
-27232.6272145
 20
126.473860638
 10
-27229.0258244
 20
125.462474553
  0
LWPOLYLINE
  5
229
330
1F
100
AcDbEntity
  8
stray_beam_width
100
AcDbPolyline
 90
15
 70
0
43
0.0
 10
-27261.4383318
 20
134.564951667
 10
-27279.3142113
 20
2020.35817773
 10
-27297.2192362
 20
3906.1511278
 10
-27315.1517502
 20
5791.94381757
 10
-27333.1093897
 20
7677.73626942
 10
-27351.0894035
 20
9563.52850941
 10
-27369.0889443
 20
11449.3205645
 10
-27387.1052822
 20
13335.1124605
 10
-27405.1359332
 20
15220.904221
 10
-27423.1787156
 20
17106.6958666
 10
-27441.2317584
 20
18992.4874151
 10
-27459.293481
 20
20878.2788813
 10
-27477.3625608
 20
22764.0702779
 10
-27495.4378958
 20
24649.8616153
 10
-27513.5185699
 20
26535.6529021
  0
LWPOLYLINE
  5
22a
330
1F
100
AcDbEntity
  8
stray_beam_width
100
AcDbPolyline
 90
15
 70
0
43
0.0
 10
-27256.7056583
 20
139.342652292
 10
-27274.5405673
 20
2024.79215548
 10
-27292.3463442
 20
3910.24193453
 10
-27310.1246466
 20
5795.69197374
 10
-27327.8778377
 20
7681.14225074
 10
-27345.6086677
 20
9566.59273948
 10
-27363.3199824
 20
11452.043413
 10
-27381.0145097
 20
13337.4942455
 10
-27398.6947321
 20
15222.9452135
 10
-27416.3628297
 20
17108.3962962
 10
-27434.0206721
 20
18993.8474761
 10
-27451.6698388
 20
20879.2987381
 10
-27469.3116517
 20
22764.7500698
 10
-27486.9472119
 20
24650.2014607
 10
-27504.5774351
 20
26535.6529021
  0
LWPOLYLINE
  5
22b
330
1F
100
AcDbEntity
  8
stray_beam_width
100
AcDbPolyline
 90
15
 70
0
43
0.0
 10
-27504.5774301
 20
26535.6529021
 10
-27522.6565168
 20
24650.0272028
 10
-27540.7302654
 20
22764.401453
 10
-27558.7977601
 20
20878.7756439
 10
-27576.8578992
 20
18993.1497652
 10
-27594.9093605
 20
17107.5238043
 10
-27612.950564
 20
15221.8977463
 10
-27630.9796393
 20
13336.2715735
 10
-27648.9944055
 20
11450.6452651
 10
-27666.9923793
 20
9565.01879773
 10
-27684.9708319
 20
7679.39214551
 10
-27702.9269164
 20
5793.76528148
 10
-27720.8578824
 20
3908.1381796
 10
-27738.7613665
 20
2022.51081749
 10
-27756.6357114
 20
136.883179449
  0
LWPOLYLINE
  5
22c
330
1F
100
AcDbEntity
  8
stray_beam_width
100
AcDbPolyline
 90
15
 70
0
43
0.0
 10
-27513.5185649
 20
26535.6529021
 10
-27531.1504008
 20
24650.0290152
 10
-27548.7875748
 20
22764.4051789
 10
-27566.4310028
 20
20878.7814018
 10
-27584.0817862
 20
18993.1576944
 10
-27601.7412476
 20
17107.5340691
 10
-27619.4109667
 20
15221.910541
 10
-27637.092814
 20
13336.2871277
 10
-27654.7889704
 20
11450.6638499
 10
-27672.501919
 20
9565.04073115
 10
-27690.2343889
 20
7679.41779722
 10
-27707.9892266
 20
5793.7950751
 10
-27725.7691828
 20
3908.17259083
 10
-27743.5766207
 20
2022.55036679
 10
-27761.4131976
 20
136.928418681
  0
LWPOLYLINE
  5
22d
330
1F
100
AcDbEntity
  8
stray_beam_width
100
AcDbPolyline
 90
10
 70
0
43
0.0
 10
-27224.6087709
 20
130.328899191
 10
-26582.303229
 20
109.552762675
 10
-25939.9975898
 20
88.7796329038
 10
-25297.691854
 20
68.0094887805
 10
-24655.3860226
 20
47.2422988919
 10
-24013.080097
 20
26.4780220522
 10
-23370.7740788
 20
5.71660800009
 10
-22728.4679699
 20
-15.0420017825
 10
-22086.1617724
 20
-35.797873156
 10
-21443.8554886
 20
-56.5510783465
  0
LWPOLYLINE
  5
22e
330
1F
100
AcDbEntity
  8
stray_beam_width
100
AcDbPolyline
 90
10
 70
0
43
0.0
 10
-27229.0258218
 20
125.462477426
 10
-26586.2722033
 20
104.666083797
 10
-25943.5186821
 20
83.8666791328
 10
-25300.7652577
 20
63.064284515
 10
-24658.0119291
 20
42.2589313737
 10
-24015.2586947
 20
21.4506609411
 10
-23372.5055532
 20
0.639523553544
 10
-22729.7525024
 20
-20.1744221704
 10
-22086.9995404
 20
-40.9911102469
 10
-21444.2466648
 20
-61.8104683068
  0
LWPOLYLINE
  5
22f
330
1F
100
AcDbEntity
  8
stray_beam_width
100
AcDbPolyline
 90
36
 70
0
43
0.0
 10
-21444.2466624
 20
-61.8104355732
 10
-21529.5359919
 20
-51.9146919312
 10
-21614.8253265
 20
-42.0189915151
 10
-21700.1146659
 20
-32.123331809
 10
-21785.4040097
 20
-22.2277104871
 10
-21870.6933577
 20
-12.3321253957
 10
-21955.9827097
 20
-2.43657453808
 10
-22041.2720656
 20
7.45894393944
 10
-22126.5614249
 20
17.3544317602
 10
-22211.8507877
 20
27.2498905282
 10
-22297.1401537
 20
37.1453217382
 10
-22382.4295228
 20
47.040726785
 10
-22467.7188947
 20
56.9361069713
 10
-22553.0082694
 20
66.8314635152
 10
-22638.2976467
 20
76.7267975572
 10
-22723.5870266
 20
86.6221101659
 10
-22808.8764088
 20
96.5174023436
 10
-22894.1657933
 20
106.412675032
 10
-22979.4551799
 20
116.307929114
 10
-23064.7445686
 20
126.203165424
 10
-23150.0339594
 20
136.098384744
 10
-23235.323352
 20
145.993587813
 10
-23320.6127464
 20
155.888775327
 10
-23405.9021425
 20
165.783947943
 10
-23491.1915404
 20
175.679106282
 10
-23576.4809398
 20
185.574250932
 10
-23661.7703407
 20
195.469382448
 10
-23747.0597432
 20
205.364501355
 10
-23832.349147
 20
215.259608152
 10
-23917.6385522
 20
225.154703312
 10
-24002.9279587
 20
235.049787283
 10
-24088.2173665
 20
244.94486049
 10
-24173.5067754
 20
254.839923338
 10
-24258.7961856
 20
264.734976212
 10
-24344.0855968
 20
274.630019477
 10
-24429.3750092
 20
284.525053481
  0
LWPOLYLINE
  5
230
330
1F
100
AcDbEntity
  8
stray_beam_width
100
AcDbPolyline
 90
36
 70
0
43
0.0
 10
-21443.8554862
 20
-56.5510461352
 10
-21529.13932
 20
-46.5467499768
 10
-21614.4231488
 20
-36.5424105924
 10
-21699.7069729
 20
-26.5380304977
 10
-21784.9907925
 20
-16.5336120189
 10
-21870.2746078
 20
-6.52915730955
 10
-21955.5584192
 20
3.47533163357
 10
-22040.8422268
 20
13.4798529566
 10
-22126.1260308
 20
23.4844049363
 10
-22211.4098314
 20
33.4889859686
 10
-22296.6936288
 20
43.4935945585
 10
-22381.9774231
 20
53.4982293115
 10
-22467.2612146
 20
63.5028889248
 10
-22552.5450033
 20
73.5075721801
 10
-22637.8287894
 20
83.512277937
 10
-22723.1125729
 20
93.517005127
 10
-22808.3963541
 20
103.521752748
 10
-22893.680133
 20
113.526519858
 10
-22978.9639097
 20
123.531305572
 10
-23064.2476844
 20
133.53610906
 10
-23149.5314571
 20
143.540929537
 10
-23234.8152279
 20
153.545766265
 10
-23320.0989968
 20
163.550618547
 10
-23405.3827641
 20
173.555485727
 10
-23490.6665296
 20
183.560367184
 10
-23575.9502936
 20
193.565262329
 10
-23661.234056
 20
203.570170609
 10
-23746.517817
 20
213.575091496
 10
-23831.8015766
 20
223.580024493
 10
-23917.0853348
 20
233.584969127
 10
-24002.3690917
 20
243.58992495
 10
-24087.6528473
 20
253.594891536
 10
-24172.9366017
 20
263.599868481
 10
-24258.220355
 20
273.6048554
 10
-24343.5041071
 20
283.609851928
 10
-24428.7878582
 20
293.614857715
  0
LWPOLYLINE
  5
231
330
1F
100
AcDbEntity
  8
stray_beam_width
100
AcDbPolyline
 90
10
 70
0
43
0.0
 10
-24428.7878631
 20
293.614781272
 10
-23888.062526
 20
286.647906508
 10
-23347.3371843
 20
279.681390071
 10
-22806.6118379
 20
272.715233752
 10
-22265.8864869
 20
265.749439263
 10
-21725.1611312
 20
258.784008244
 10
-21184.4357708
 20
251.818942254
 10
-20643.7104056
 20
244.854242772
 10
-20102.9850358
 20
237.889911197
 10
-19562.2596612
 20
230.925948843
  0
LWPOLYLINE
  5
232
330
1F
100
AcDbEntity
  8
stray_beam_width
100
AcDbPolyline
 90
10
 70
0
43
0.0
 10
-24429.3750141
 20
284.524976107
 10
-23888.5466971
 20
277.572559108
 10
-23347.7183847
 20
270.619783646
 10
-22806.890077
 20
263.666647932
 10
-22266.0617739
 20
256.713150249
 10
-21725.2334754
 20
249.759288959
 10
-21184.4051817
 20
242.805062502
 10
-20643.5768927
 20
235.850469396
 10
-20102.7486084
 20
228.895508243
 10
-19561.9203289
 20
221.940177728
  0
LWPOLYLINE
  5
233
330
1F
100
AcDbEntity
  8
stray_beam_width
100
AcDbPolyline
 90
10
 70
0
43
0.0
 10
-19562.2596611
 20
230.925947784
 10
-19551.1330549
 20
230.957465766
 10
-19540.0064486
 20
230.988983823
 10
-19528.8798423
 20
231.020501953
 10
-19517.7532361
 20
231.052020159
 10
-19506.6266298
 20
231.083538439
 10
-19495.5000235
 20
231.115056793
 10
-19484.3734173
 20
231.146575222
 10
-19473.246811
 20
231.178093725
 10
-19462.1202047
 20
231.209612303
  0
LWPOLYLINE
  5
234
330
1F
100
AcDbEntity
  8
stray_beam_width
100
AcDbPolyline
 90
10
 70
0
43
0.0
 10
-19561.9203289
 20
221.940176669
 10
-19550.828592
 20
221.971731319
 10
-19539.7368551
 20
222.003285895
 10
-19528.6451183
 20
222.034840398
 10
-19517.5533814
 20
222.066394826
 10
-19506.4616445
 20
222.09794918
 10
-19495.3699077
 20
222.12950346
 10
-19484.2781708
 20
222.161057666
 10
-19473.1864339
 20
222.192611798
 10
-19462.0946971
 20
222.224165855
  0
LWPOLYLINE
  5
235
330
1F
100
AcDbEntity
  8
stray_beam_width
100
AcDbPolyline
 90
10
 70
0
43
0.0
 10
-19462.0946971
 20
222.224165855
 10
-19473.1864308
 20
222.192528439
 10
-19484.2781645
 20
222.160890948
 10
-19495.3698982
 20
222.129253383
 10
-19506.461632
 20
222.097615744
 10
-19517.5533657
 20
222.065978031
 10
-19528.6450994
 20
222.034340244
 10
-19539.7368331
 20
222.002702383
 10
-19550.8285668
 20
221.971064448
 10
-19561.9203005
 20
221.939426439
  0
LWPOLYLINE
  5
236
330
1F
100
AcDbEntity
  8
stray_beam_width
100
AcDbPolyline
 90
10
 70
0
43
0.0
 10
-19462.1202047
 20
231.209612303
 10
-19473.2468141
 20
231.178177346
 10
-19484.3734236
 20
231.146742464
 10
-19495.500033
 20
231.115307656
 10
-19506.6266424
 20
231.083872923
 10
-19517.7532518
 20
231.052438264
 10
-19528.8798613
 20
231.02100368
 10
-19540.0064707
 20
230.98956917
 10
-19551.1330801
 20
230.958134734
 10
-19562.2596895
 20
230.926700373
  0
LWPOLYLINE
  5
237
330
1F
100
AcDbEntity
  8
stray_beam_width
100
AcDbPolyline
 90
10
 70
0
43
0.0
 10
-19561.9203006
 20
221.9394288
 10
-20102.7489663
 20
228.88886685
 10
-20643.5776367
 20
235.837937169
 10
-21184.4063118
 20
242.786642498
 10
-21725.2349916
 20
249.73498564
 10
-22266.063676
 20
256.682969452
 10
-22806.892365
 20
263.630596848
 10
-23347.7210585
 20
270.577870795
 10
-23888.5497565
 20
277.524794304
 10
-24429.378459
 20
284.471370434
  0
LWPOLYLINE
  5
238
330
1F
100
AcDbEntity
  8
stray_beam_width
100
AcDbPolyline
 90
10
 70
0
43
0.0
 10
-19562.2596896
 20
230.926702735
 10
-20102.9846742
 20
237.89655637
 10
-20643.709654
 20
244.866777593
 10
-21184.4346291
 20
251.837363666
 10
-21725.1595995
 20
258.808311787
 10
-22265.8845653
 20
265.779619099
 10
-22806.6095266
 20
272.751282692
 10
-23347.3344833
 20
279.7232996
 10
-23888.0594354
 20
286.695666813
 10
-24428.7843832
 20
293.668381274
  0
LWPOLYLINE
  5
239
330
1F
100
AcDbEntity
  8
stray_beam_width
100
AcDbPolyline
 90
36
 70
0
43
0.0
 10
-24428.7843781
 20
293.668459542
 10
-24343.500592
 20
283.66371516
 10
-24258.216805
 20
273.658979714
 10
-24172.9330168
 20
263.654253533
 10
-24087.6492275
 20
253.649536963
 10
-24002.3654371
 20
243.644830369
 10
-23917.0816455
 20
233.640134133
 10
-23831.7978525
 20
223.635448658
 10
-23746.5140583
 20
213.630774367
 10
-23661.2302628
 20
203.626111705
 10
-23575.9464658
 20
193.621461143
 10
-23490.6626674
 20
183.616823176
 10
-23405.3788674
 20
173.612198327
 10
-23320.0950658
 20
163.607587146
 10
-23234.8112626
 20
153.602990217
 10
-23149.5274576
 20
143.598408156
 10
-23064.2436508
 20
133.593841615
 10
-22978.9598422
 20
123.589291285
 10
-22893.6760315
 20
113.584757899
 10
-22808.3922188
 20
103.580242232
 10
-22723.1084039
 20
93.57574511
 10
-22637.8245868
 20
83.5712674081
 10
-22552.5407673
 20
73.5668100586
 10
-22467.2569453
 20
63.5623740536
 10
-22381.9731206
 20
53.5579604504
 10
-22296.6892933
 20
43.5535703767
 10
-22211.405463
 20
33.5492050366
 10
-22126.1216297
 20
23.5448657174
 10
-22040.8377932
 20
13.5405537965
 10
-21955.5539534
 20
3.53627074941
 10
-21870.27011
 20
-6.46798184129
 10
-21784.9862628
 20
-16.4722022762
 10
-21699.7024117
 20
-26.4763887282
 10
-21614.4185564
 20
-36.4805392305
 10
-21529.1346966
 20
-46.4846516629
 10
-21443.8508322
 20
-56.4887237368
  0
LWPOLYLINE
  5
23a
330
1F
100
AcDbEntity
  8
stray_beam_width
100
AcDbPolyline
 90
36
 70
0
43
0.0
 10
-24429.3784539
 20
284.471449634
 10
-24344.0890765
 20
274.576154234
 10
-24258.7997001
 20
264.6808499
 10
-24173.5103249
 20
254.7855363
 10
-24088.2209507
 20
244.890213088
 10
-24002.9315777
 20
234.9948799
 10
-23917.6422059
 20
225.099536353
 10
-23832.3528353
 20
215.204182045
 10
-23747.0634661
 20
205.308816554
 10
-23661.7740982
 20
195.413439432
 10
-23576.4847317
 20
185.51805021
 10
-23491.1953667
 20
175.622648393
 10
-23405.9060033
 20
165.727233459
 10
-23320.6166414
 20
155.831804855
 10
-23235.3272812
 20
145.936361999
 10
-23150.0379227
 20
136.040904275
 10
-23064.748566
 20
126.14543103
 10
-22979.4592112
 20
116.249941574
 10
-22894.1698584
 20
106.354435175
 10
-22808.8805077
 20
96.458911055
 10
-22723.5911591
 20
86.5633683907
 10
-22638.3018128
 20
76.6678063057
 10
-22553.0124689
 20
66.7722238681
 10
-22467.7231275
 20
56.8766200856
 10
-22382.4337886
 20
46.9809939012
 10
-22297.1444525
 20
37.0853441871
 10
-22211.8551194
 20
27.1896697391
 10
-22126.5657892
 20
17.29396927
 10
-22041.2764622
 20
7.39824140256
 10
-21955.9871386
 20
-2.49751533884
 10
-21870.6978186
 20
-12.3933025367
 10
-21785.4085023
 20
-22.2891218904
 10
-21700.11919
 20
-32.184975227
 10
-21614.8298818
 20
-42.0808645132
 10
-21529.5405782
 20
-51.9767918691
 10
-21444.2512792
 20
-61.8727595833
  0
LWPOLYLINE
  5
23b
330
1F
100
AcDbEntity
  8
stray_beam_width
100
AcDbPolyline
 90
10
 70
0
43
0.0
 10
-21444.2512817
 20
-61.872793879
 10
-22087.0180795
 20
-41.0635566972
 10
-22729.7849569
 20
-20.2567773424
 10
-23372.5519149
 20
0.547508623609
 10
-24015.3189545
 20
21.349272058
 10
-24658.0860764
 20
42.1484906381
 10
-25300.8532812
 20
62.945149176
 10
-25943.620569
 20
83.7392398361
 10
-26586.3879399
 20
104.530762248
 10
-27229.1553937
 20
125.319723514
  0
LWPOLYLINE
  5
23c
330
1F
100
AcDbEntity
  8
stray_beam_width
100
AcDbPolyline
 90
10
 70
0
43
0.0
 10
-21443.8508347
 20
-56.4887575008
 10
-22086.1432056
 20
-35.7254377918
 10
-22728.4354971
 20
-14.9596639315
 10
-23370.7277081
 20
5.80859957201
 10
-24013.0198376
 20
26.5793818116
 10
-24655.3118849
 20
47.3527050811
 10
-25297.6038495
 20
68.1285845613
 10
-25939.8957312
 20
88.9070281033
 10
-26582.1875299
 20
109.688036115
 10
-27224.4792458
 20
130.471601555
  0
LWPOLYLINE
  5
23d
330
1F
100
AcDbEntity
  8
stray_beam_width
100
AcDbPolyline
 90
10
 70
0
43
0.0
 10
-27229.155381
 20
125.319737521
 10
-27232.7578209
 20
126.331391305
 10
-27236.3602608
 20
127.343045065
 10
-27239.9627007
 20
128.3546988
 10
-27243.5651406
 20
129.366352511
 10
-27247.1675805
 20
130.378006197
 10
-27250.7700204
 20
131.389659859
 10
-27254.3724604
 20
132.401313497
 10
-27257.9749003
 20
133.41296711
 10
-27261.5773403
 20
134.424620699
  0
LWPOLYLINE
  5
23e
330
1F
100
AcDbEntity
  8
stray_beam_width
100
AcDbPolyline
 90
10
 70
0
43
0.0
 10
-27224.4792332
 20
130.471615535
 10
-27228.0445046
 20
131.472875606
 10
-27231.609776
 20
132.474135701
 10
-27235.1750474
 20
133.47539582
 10
-27238.7403189
 20
134.476655963
 10
-27242.3055903
 20
135.47791613
 10
-27245.8708617
 20
136.479176321
 10
-27249.4361331
 20
137.480436535
 10
-27253.0014045
 20
138.481696774
 10
-27256.5666758
 20
139.482957037
  0
LWPOLYLINE
  5
23f
330
1F
100
AcDbEntity
  8
stray_beam_width
100
AcDbPolyline
 90
10
 70
0
43
0.0
 10
-27256.5666758
 20
139.482957037
 10
-27255.4802718
 20
135.750640773
 10
-27254.3938678
 20
132.018324517
 10
-27253.3074637
 20
128.286008269
 10
-27252.2210596
 20
124.553692028
 10
-27251.1346554
 20
120.821375795
 10
-27250.0482513
 20
117.089059569
 10
-27248.9618471
 20
113.356743352
 10
-27247.8754429
 20
109.624427142
 10
-27246.7890387
 20
105.892110939
  0
LWPOLYLINE
  5
240
330
1F
100
AcDbEntity
  8
stray_beam_width
100
AcDbPolyline
 90
10
 70
0
43
0.0
 10
-27261.5773403
 20
134.424620699
 10
-27260.479656
 20
130.653388677
 10
-27259.3819718
 20
126.882156648
 10
-27258.2842877
 20
123.110924611
 10
-27257.1866035
 20
119.339692566
 10
-27256.0889194
 20
115.568460514
 10
-27254.9912353
 20
111.797228453
 10
-27253.8935512
 20
108.025996385
 10
-27252.7958672
 20
104.254764309
 10
-27251.6981831
 20
100.483532225
  0
LWPOLYLINE
  5
241
330
1F
100
AcDbEntity
  8
stray_beam_width
100
AcDbPolyline
 90
10
 70
0
43
0.0
 10
-27246.7890615
 20
105.89208578
 10
-27249.7994804
 20
-5.48608361841
 10
-27252.8097939
 20
-116.864255865
 10
-27255.8200022
 20
-228.242430955
 10
-27258.8301056
 20
-339.620608884
 10
-27261.8401043
 20
-450.998789644
 10
-27264.8499984
 20
-562.376973231
 10
-27267.8597883
 20
-673.755159638
 10
-27270.8694741
 20
-785.133348859
 10
-27273.8790561
 20
-896.511540885
  0
LWPOLYLINE
  5
242
330
1F
100
AcDbEntity
  8
stray_beam_width
100
AcDbPolyline
 90
10
 70
0
43
0.0
 10
-27251.698206
 20
100.483506996
 10
-27254.694558
 20
-10.2793401285
 10
-27257.6910142
 20
-121.042184437
 10
-27260.6875743
 20
-231.805025933
 10
-27263.6842383
 20
-342.567864622
 10
-27266.6810058
 20
-453.33070051
 10
-27269.6778767
 20
-564.093533603
 10
-27272.6748508
 20
-674.856363908
 10
-27275.6719277
 20
-785.61919143
 10
-27278.6691073
 20
-896.382016177
  0
LWPOLYLINE
  5
243
330
1F
100
AcDbEntity
  8
stray_beam_width
100
AcDbPolyline
 90
10
 70
0
43
0.0
 10
-21443.8554897
 20
-56.551092823
 10
-21440.5155387
 20
-56.7028417041
 10
-21437.1755877
 20
-56.854590552
 10
-21433.8356367
 20
-57.0063393666
 10
-21430.4956857
 20
-57.1580881478
 10
-21427.1557347
 20
-57.3098368958
 10
-21423.8157837
 20
-57.4615856104
 10
-21420.4758328
 20
-57.6133342917
 10
-21417.1358818
 20
-57.7650829397
 10
-21413.7959308
 20
-57.9168315543
  0
LWPOLYLINE
  5
244
330
1F
100
AcDbEntity
  8
stray_beam_width
100
AcDbPolyline
 90
10
 70
0
43
0.0
 10
-21444.2466659
 20
-61.8104827023
 10
-21440.8964741
 20
-61.9622783622
 10
-21437.5462823
 20
-62.1140740556
 10
-21434.1960905
 20
-62.2658697825
 10
-21430.8458988
 20
-62.417665543
 10
-21427.495707
 20
-62.5694613369
 10
-21424.1455152
 20
-62.7212571644
 10
-21420.7953234
 20
-62.8730530254
 10
-21417.4451317
 20
-63.0248489199
 10
-21414.0949399
 20
-63.176644848
  0
LWPOLYLINE
  5
245
330
1F
100
AcDbEntity
  8
stray_beam_width
100
AcDbPolyline
 90
10
 70
0
43
0.0
 10
-24429.3750124
 20
284.525002938
 10
-24432.6860459
 20
284.85578543
 10
-24435.9970794
 20
285.186567915
 10
-24439.3081129
 20
285.517350394
 10
-24442.6191463
 20
285.848132866
 10
-24445.9301798
 20
286.178915333
 10
-24449.2412133
 20
286.509697793
 10
-24452.5522468
 20
286.840480246
 10
-24455.8632803
 20
287.171262693
 10
-24459.1743138
 20
287.502045134
  0
LWPOLYLINE
  5
246
330
1F
100
AcDbEntity
  8
stray_beam_width
100
AcDbPolyline
 90
10
 70
0
43
0.0
 10
-24428.7878615
 20
293.614807316
 10
-24432.0933681
 20
293.948662661
 10
-24435.3988748
 20
294.282518011
 10
-24438.7043815
 20
294.616373368
 10
-24442.0098882
 20
294.950228731
 10
-24445.3153949
 20
295.284084101
 10
-24448.6209016
 20
295.617939476
 10
-24451.9264083
 20
295.951794859
 10
-24455.231915
 20
296.285650247
 10
-24458.5374217
 20
296.619505642
  0
LWPOLYLINE
  5
247
330
1F
100
AcDbEntity
  8
stray_beam_width
100
AcDbPolyline
 90
10
 70
0
43
0.0
 10
-19562.2596895
 20
230.926700373
 10
-19551.1352761
 20
231.736487961
 10
-19540.0108627
 20
232.546275624
 10
-19528.8864492
 20
233.356063361
 10
-19517.7620358
 20
234.165851172
 10
-19506.6376224
 20
234.975639058
 10
-19495.5132089
 20
235.785427019
 10
-19484.3887955
 20
236.595215054
 10
-19473.2643821
 20
237.405003164
 10
-19462.1399687
 20
238.214791349
  0
LWPOLYLINE
  5
248
330
1F
100
AcDbEntity
  8
stray_beam_width
100
AcDbPolyline
 90
10
 70
0
43
0.0
 10
-19561.9203005
 20
221.939426439
 10
-19550.8307695
 20
222.746370944
 10
-19539.7412384
 20
223.553315375
 10
-19528.6517073
 20
224.360259731
 10
-19517.5621763
 20
225.167204013
 10
-19506.4726452
 20
225.974148222
 10
-19495.3831141
 20
226.781092356
 10
-19484.293583
 20
227.588036416
 10
-19473.2040519
 20
228.394980402
 10
-19462.1145208
 20
229.201924314
  0
LWPOLYLINE
  5
249
330
1F
100
AcDbEntity
  8
stray_beam_width
100
AcDbPolyline
 90
10
 70
0
43
0.0
 10
-19462.1145208
 20
229.201930515
 10
-19473.2627616
 20
229.949663885
 10
-19484.4110024
 20
230.69739718
 10
-19495.5592432
 20
231.445130401
 10
-19506.7074841
 20
232.192863547
 10
-19517.8557249
 20
232.940596618
 10
-19529.0039657
 20
233.688329615
 10
-19540.1522066
 20
234.436062536
 10
-19551.3004474
 20
235.183795383
 10
-19562.4486883
 20
235.931528156
  0
LWPOLYLINE
  5
24a
330
1F
100
AcDbEntity
  8
stray_beam_width
100
AcDbPolyline
 90
10
 70
0
43
0.0
 10
-19462.1399687
 20
238.214797549
 10
-19473.3233166
 20
238.965635168
 10
-19484.5066644
 20
239.716472862
 10
-19495.6900122
 20
240.467310631
 10
-19506.87336
 20
241.218148475
 10
-19518.0567078
 20
241.968986395
 10
-19529.2400556
 20
242.71982439
 10
-19540.4234034
 20
243.47066246
 10
-19551.6067512
 20
244.221500605
 10
-19562.790099
 20
244.972338825
  0
LWPOLYLINE
  5
24b
330
1F
100
AcDbEntity
  8
stray_beam_width
100
AcDbPolyline
 90
10
 70
0
43
0.0
 10
-19561.9203289
 20
221.940177728
 10
-19672.572886
 20
212.138405239
 10
-19783.2254416
 20
202.336617168
 10
-19893.8779959
 20
192.534813504
 10
-20004.5305488
 20
182.732994236
 10
-20115.1831003
 20
172.931159356
 10
-20225.8356505
 20
163.129308854
 10
-20336.4881992
 20
153.327442721
 10
-20447.1407466
 20
143.525560946
 10
-20557.7932925
 20
133.723663522
  0
LWPOLYLINE
  5
24c
330
1F
100
AcDbEntity
  8
stray_beam_width
100
AcDbPolyline
 90
10
 70
0
43
0.0
 10
-19562.2596612
 20
230.925948843
 10
-19672.9623974
 20
221.117769684
 10
-19783.665135
 20
211.309606123
 10
-19894.367874
 20
201.501458169
 10
-20005.0706143
 20
191.693325833
 10
-20115.7733561
 20
181.885209123
 10
-20226.4760992
 20
172.077108049
 10
-20337.1788437
 20
162.269022621
 10
-20447.8815897
 20
152.460952848
 10
-20558.584337
 20
142.652898739
  0
LWPOLYLINE
  5
24d
330
1F
100
AcDbEntity
  8
stray_beam_width
100
AcDbPolyline
 90
10
 70
0
43
0.0
 10
-24429.3784607
 20
284.471344623
 10
-24432.7059441
 20
284.567114282
 10
-24436.0334275
 20
284.662883934
 10
-24439.360911
 20
284.75865358
 10
-24442.6883944
 20
284.85442322
 10
-24446.0158778
 20
284.950192854
 10
-24449.3433613
 20
285.045962482
 10
-24452.6708447
 20
285.141732103
 10
-24455.9983281
 20
285.237501719
 10
-24459.3258116
 20
285.333271328
  0
LWPOLYLINE
  5
24e
330
1F
100
AcDbEntity
  8
stray_beam_width
100
AcDbPolyline
 90
10
 70
0
43
0.0
 10
-24428.7843848
 20
293.668355318
 10
-24432.1064483
 20
293.764771268
 10
-24435.4285118
 20
293.861187224
 10
-24438.7505753
 20
293.957603186
 10
-24442.0726388
 20
294.054019155
 10
-24445.3947023
 20
294.150435129
 10
-24448.7167658
 20
294.24685111
 10
-24452.0388292
 20
294.343267097
 10
-24455.3608927
 20
294.43968309
 10
-24458.6829562
 20
294.53609909
  0
LWPOLYLINE
  5
24f
330
1F
100
AcDbEntity
  8
stray_beam_width
100
AcDbPolyline
 90
10
 70
0
43
0.0
 10
-21443.850834
 20
-56.4887483497
 10
-21440.5220676
 20
-56.8350705779
 10
-21437.1933012
 20
-57.1813927752
 10
-21433.8645348
 20
-57.5277149413
 10
-21430.5357684
 20
-57.8740370763
 10
-21427.207002
 20
-58.2203591802
 10
-21423.8782356
 20
-58.5666812527
 10
-21420.5494692
 20
-58.913003294
 10
-21417.2207027
 20
-59.2593253038
 10
-21413.8919363
 20
-59.6056472823
  0
LWPOLYLINE
  5
250
330
1F
100
AcDbEntity
  8
stray_beam_width
100
AcDbPolyline
 90
10
 70
0
43
0.0
 10
-21444.251281
 20
-61.8727842786
 10
-21440.9118889
 20
-62.2166539582
 10
-21437.5724969
 20
-62.560523669
 10
-21434.2331048
 20
-62.904393411
 10
-21430.8937128
 20
-63.2482631844
 10
-21427.5543207
 20
-63.5921329891
 10
-21424.2149287
 20
-63.9360028253
 10
-21420.8755367
 20
-64.279872693
 10
-21417.5361446
 20
-64.6237425923
 10
-21414.1967526
 20
-64.9676125233
  0
LWPOLYLINE
  5
251
330
1F
100
AcDbEntity
  8
stray_beam_width
100
AcDbPolyline
 90
10
 70
0
43
0.0
 10
-27251.6981831
 20
100.483532225
 10
-27255.7703779
 20
101.251953987
 10
-27259.8425727
 20
102.020375719
 10
-27263.9147674
 20
102.78879742
 10
-27267.9869622
 20
103.55721909
 10
-27272.059157
 20
104.32564073
 10
-27276.1313518
 20
105.094062339
 10
-27280.2035466
 20
105.862483918
 10
-27284.2757414
 20
106.630905466
 10
-27288.3479362
 20
107.399326984
  0
LWPOLYLINE
  5
252
330
1F
100
AcDbEntity
  8
stray_beam_width
100
AcDbPolyline
 90
10
 70
0
43
0.0
 10
-27246.7890387
 20
105.892110939
 10
-27250.8192107
 20
106.652651923
 10
-27254.8493827
 20
107.413192936
 10
-27258.8795547
 20
108.173733979
 10
-27262.9097267
 20
108.934275053
 10
-27266.9398987
 20
109.694816156
 10
-27270.9700707
 20
110.455357289
 10
-27275.0002427
 20
111.215898452
 10
-27279.0304147
 20
111.976439645
 10
-27283.0605866
 20
112.736980867
  0
LWPOLYLINE
  5
253
330
1F
100
AcDbEntity
  8
stray_beam_width
100
AcDbPolyline
 90
10
 70
0
43
0.0
 10
-27283.0605866
 20
112.736980867
 10
-27282.4455129
 20
109.638932751
 10
-27281.8304391
 20
106.540884637
 10
-27281.2153654
 20
103.442836528
 10
-27280.6002916
 20
100.344788421
 10
-27279.9852178
 20
97.2467403185
 10
-27279.3701439
 20
94.1486922193
 10
-27278.7550701
 20
91.0506441235
 10
-27278.1399962
 20
87.9525960313
 10
-27277.5249223
 20
84.8545479426
  0
LWPOLYLINE
  5
254
330
1F
100
AcDbEntity
  8
stray_beam_width
100
AcDbPolyline
 90
10
 70
0
43
0.0
 10
-27288.3479362
 20
107.399326984
 10
-27288.0232813
 20
105.763980007
 10
-27287.6986264
 20
104.128633028
 10
-27287.3739714
 20
102.493286048
 10
-27287.0493165
 20
100.857939068
 10
-27286.7246616
 20
99.2225920862
 10
-27286.4000067
 20
97.5872451037
 10
-27286.0753518
 20
95.9518981202
 10
-27285.7506969
 20
94.3165511357
 10
-27285.426042
 20
92.6812041502
  0
LWPOLYLINE
  5
255
330
1F
100
AcDbEntity
  8
stray_beam_width
100
AcDbPolyline
 90
10
 70
0
43
0.0
 10
-27224.4792458
 20
130.471601555
 10
-27210.1440428
 20
20.0366129939
 10
-27195.8087641
 20
-90.3983657421
 10
-27181.4734097
 20
-200.833334667
 10
-27167.1379799
 20
-311.268293795
 10
-27152.8024748
 20
-421.70324314
 10
-27138.4668943
 20
-532.138182719
 10
-27124.1312388
 20
-642.573112549
 10
-27109.7955083
 20
-753.008032646
 10
-27095.4597029
 20
-863.442943028
  0
LWPOLYLINE
  5
256
330
1F
100
AcDbEntity
  8
stray_beam_width
100
AcDbPolyline
 90
10
 70
0
43
0.0
 10
-27229.1553937
 20
125.319723514
 10
-27214.8868759
 20
15.3810717294
 10
-27200.6184331
 20
-94.5575897907
 10
-27186.3500653
 20
-204.496261034
 10
-27172.0817722
 20
-314.434941985
 10
-27157.8135539
 20
-424.373632631
 10
-27143.5454101
 20
-534.312332955
 10
-27129.2773407
 20
-644.251042942
 10
-27115.0093457
 20
-754.189762573
 10
-27100.7414248
 20
-864.128491831
  0
LWPOLYLINE
  5
257
330
1F
100
AcDbEntity
  8
stray_beam_width
100
AcDbPolyline
 90
10
 70
0
43
0.0
 10
-27261.5773579
 20
134.424602931
 10
-27316.8545403
 20
134.424020103
 10
-27372.1317228
 20
134.423415628
 10
-27427.4089053
 20
134.422789519
 10
-27482.6860877
 20
134.422141793
 10
-27537.9632702
 20
134.421472467
 10
-27593.2404526
 20
134.420781558
 10
-27648.5176351
 20
134.420069083
 10
-27703.7948175
 20
134.419335061
 10
-27759.072
 20
134.41857951
  0
LWPOLYLINE
  5
258
330
1F
100
AcDbEntity
  8
stray_beam_width
100
AcDbPolyline
 90
10
 70
0
43
0.0
 10
-27256.5666934
 20
139.482939309
 10
-27312.4006164
 20
139.483526134
 10
-27368.2345393
 20
139.484135046
 10
-27424.0684623
 20
139.484766031
 10
-27479.9023852
 20
139.485419071
 10
-27535.7363082
 20
139.48609415
 10
-27591.5702311
 20
139.48679125
 10
-27647.4041541
 20
139.487510352
 10
-27703.238077
 20
139.488251439
 10
-27759.072
 20
139.48901449
  0
LWPOLYLINE
  5
259
330
1F
100
AcDbEntity
  8
stray_beam_width
100
AcDbPolyline
 90
17
 70
0
43
0.0
 10
-21413.8919322
 20
-59.605574756
 10
-21351.8666117
 20
-67.3851184917
 10
-21289.8412882
 20
-75.164637813
 10
-21227.8159615
 20
-82.9441313402
 10
-21165.7906314
 20
-90.7235975883
 10
-21103.7652977
 20
-98.5030349568
 10
-21041.7399602
 20
-106.282441719
 10
-20979.7146186
 20
-114.061816009
 10
-20917.6892727
 20
-121.841155807
 10
-20855.6639223
 20
-129.620458925
 10
-20793.6385669
 20
-137.399722985
 10
-20731.6132064
 20
-145.178945406
 10
-20669.5878404
 20
-152.958123372
 10
-20607.5624684
 20
-160.737253814
 10
-20545.5370901
 20
-168.516333375
 10
-20483.511705
 20
-176.29535838
 10
-20421.4863126
 20
-184.074324794
  0
LWPOLYLINE
  5
25a
330
1F
100
AcDbEntity
  8
stray_beam_width
100
AcDbPolyline
 90
17
 70
0
43
0.0
 10
-21414.1967485
 20
-64.9675400082
 10
-21352.1819785
 20
-72.6494404481
 10
-21290.1672115
 20
-80.3313652919
 10
-21228.1524478
 20
-88.0133159184
 10
-21166.1376875
 20
-95.6952938117
 10
-21104.1229308
 20
-103.377300571
 10
-21042.1081779
 20
-111.059337921
 10
-20980.093429
 20
-118.741407727
 10
-20918.0786844
 20
-126.423512008
 10
-20856.0639444
 20
-134.105652948
 10
-20794.0492093
 20
-141.787832924
 10
-20732.0344794
 20
-149.470054516
 10
-20670.019755
 20
-157.152320535
 10
-20608.0050365
 20
-164.834634048
 10
-20545.9903243
 20
-172.51699841
 10
-20483.975619
 20
-180.199417292
 10
-20421.9609209
 20
-187.881894722
  0
LWPOLYLINE
  5
25b
330
1F
100
AcDbEntity
  8
stray_beam_width
100
AcDbPolyline
 90
10
 70
0
43
0.0
 10
-24459.3258133
 20
285.333246243
 10
-24570.4006558
 20
286.481052173
 10
-24681.4754984
 20
287.628843789
 10
-24792.5503411
 20
288.77662127
 10
-24903.6251841
 20
289.924384791
 10
-25014.7000271
 20
291.072134528
 10
-25125.7748703
 20
292.21987065
 10
-25236.8497136
 20
293.367593326
 10
-25347.9245571
 20
294.515302722
 10
-25458.9994007
 20
295.662999
  0
LWPOLYLINE
  5
25c
330
1F
100
AcDbEntity
  8
stray_beam_width
100
AcDbPolyline
 90
10
 70
0
43
0.0
 10
-24458.682958
 20
294.536074006
 10
-24569.8180675
 20
295.723438092
 10
-24680.9531768
 20
296.91081651
 10
-24792.088286
 20
298.098209079
 10
-24903.2233951
 20
299.285615623
 10
-25014.358504
 20
300.473035968
 10
-25125.4936127
 20
301.660469942
 10
-25236.6287213
 20
302.847917377
 10
-25347.7638298
 20
304.035378107
 10
-25458.8989382
 20
305.22285197
  0
LWPOLYLINE
  5
25d
330
1F
100
AcDbEntity
  8
stray_beam_width
100
AcDbPolyline
 90
10
 70
0
43
0.0
 10
-19562.448689
 20
235.931546062
 10
-19672.9096092
 20
248.620124038
 10
-19783.3705312
 20
261.308686311
 10
-19893.831455
 20
273.99723294
 10
-20004.2923805
 20
286.685763981
 10
-20114.7533079
 20
299.374279491
 10
-20225.2142371
 20
312.062779527
 10
-20335.675168
 20
324.751264145
 10
-20446.1361007
 20
337.439733403
 10
-20556.5970351
 20
350.128187356
  0
LWPOLYLINE
  5
25e
330
1F
100
AcDbEntity
  8
stray_beam_width
100
AcDbPolyline
 90
10
 70
0
43
0.0
 10
-19562.7900997
 20
244.972356732
 10
-19673.0984061
 20
257.654315743
 10
-19783.4067106
 20
270.336290413
 10
-19893.7150134
 20
283.018280684
 10
-20004.0233144
 20
295.7002865
 10
-20114.3316136
 20
308.382307804
 10
-20224.639911
 20
321.064344539
 10
-20334.9482067
 20
333.746396649
 10
-20445.2565006
 20
346.428464078
 10
-20555.5647928
 20
359.110546769
  0
LWPOLYLINE
  5
25f
330
1F
100
AcDbEntity
  8
stray_beam_width
100
AcDbPolyline
 90
10
 70
0
43
0.0
 10
-19462.1399687
 20
238.214798193
 10
-19351.6815055
 20
249.762737483
 10
-19241.2230439
 20
261.310692358
 10
-19130.7645838
 20
272.858662792
 10
-19020.3061255
 20
284.406648755
 10
-18909.8476687
 20
295.954650219
 10
-18799.3892136
 20
307.502667155
 10
-18688.93076
 20
319.050699535
 10
-18578.4723081
 20
330.59874733
 10
-18468.0138578
 20
342.14681051
  0
LWPOLYLINE
  5
260
330
1F
100
AcDbEntity
  8
stray_beam_width
100
AcDbPolyline
 90
10
 70
0
43
0.0
 10
-19462.1145208
 20
229.201931158
 10
-19351.5547511
 20
240.755001691
 10
-19240.9949798
 20
252.308056608
 10
-19130.4352069
 20
263.861095939
 10
-19019.8754324
 20
275.414119712
 10
-18909.3156562
 20
286.967127955
 10
-18798.7558784
 20
298.520120698
 10
-18688.196099
 20
310.073097969
 10
-18577.636318
 20
321.626059797
 10
-18467.0765353
 20
333.179006211
  0
LWPOLYLINE
  5
261
330
1F
100
AcDbEntity
  8
stray_beam_width
100
AcDbPolyline
 90
18
 70
0
43
0.0
 10
-24459.174308
 20
287.50212812
 10
-24517.6344936
 20
294.136048207
 10
-24576.0946797
 20
300.769964271
 10
-24634.5548662
 20
307.403876432
 10
-24693.0150532
 20
314.037784802
 10
-24751.4752406
 20
320.671689493
 10
-24809.9354284
 20
327.305590609
 10
-24868.3956165
 20
333.939488252
 10
-24926.8558051
 20
340.573382521
 10
-24985.3159941
 20
347.207273509
 10
-25043.7761834
 20
353.841161307
 10
-25102.236373
 20
360.475046002
 10
-25160.6965631
 20
367.10892768
 10
-25219.1567534
 20
373.74280642
 10
-25277.6169441
 20
380.376682301
 10
-25336.0771351
 20
387.0105554
 10
-25394.5373264
 20
393.644425788
 10
-25452.997518
 20
400.278293537
  0
LWPOLYLINE
  5
262
330
1F
100
AcDbEntity
  8
stray_beam_width
100
AcDbPolyline
 90
18
 70
0
43
0.0
 10
-24458.5374159
 20
296.619588636
 10
-24516.963567
 20
303.342858953
 10
-24575.3897177
 20
310.066133289
 10
-24633.8158679
 20
316.789411525
 10
-24692.2420177
 20
323.512693547
 10
-24750.6681671
 20
330.235979246
 10
-24809.0943161
 20
336.959268516
 10
-24867.5204647
 20
343.682561255
 10
-24925.9466129
 20
350.405857366
 10
-24984.3727607
 20
357.129156754
 10
-25042.7989081
 20
363.85245933
 10
-25101.2250552
 20
370.575765005
 10
-25159.651202
 20
377.299073696
 10
-25218.0773484
 20
384.022385322
 10
-25276.5034945
 20
390.745699803
 10
-25334.9296402
 20
397.469017066
 10
-25393.3557857
 20
404.192337036
 10
-25451.7819309
 20
410.915659644
  0
LWPOLYLINE
  5
263
330
1F
100
AcDbEntity
  8
stray_beam_width
100
AcDbPolyline
 90
10
 70
0
43
0.0
 10
-21413.7959309
 20
-57.9168336189
 10
-21191.7588398
 20
-66.8660395636
 10
-20969.7217359
 20
-75.8149285961
 10
-20747.684619
 20
-84.7634934871
 10
-20525.6474888
 20
-93.7117269112
 10
-20303.6103449
 20
-102.659621452
 10
-20081.5731872
 20
-111.607169611
 10
-19859.5360152
 20
-120.55436381
 10
-19637.4988286
 20
-129.501196404
 10
-19415.4616272
 20
-138.447659687
  0
LWPOLYLINE
  5
264
330
1F
100
AcDbEntity
  8
stray_beam_width
100
AcDbPolyline
 90
10
 70
0
43
0.0
 10
-21414.09494
 20
-63.1766469126
 10
-21192.046545
 20
-72.0864792969
 10
-20969.9981628
 20
-80.9966286186
 10
-20747.9497936
 20
-89.9071021078
 10
-20525.9014377
 20
-98.817907091
 10
-20303.8530955
 20
-107.729050985
 10
-20081.8047672
 20
-116.640541291
 10
-19859.7564531
 20
-125.552385586
 10
-19637.7081536
 20
-134.464591518
 10
-19415.6598689
 20
-143.377166792
  0
LWPOLYLINE
  5
265
330
1F
100
AcDbEntity
  8
stray_beam_width
100
AcDbPolyline
 90
10
 70
0
43
0.0
 10
-27236.2115803
 20
160.031712739
 10
-27233.0204972
 20
158.826771
 10
-27229.8294141
 20
157.621829284
 10
-27226.6383311
 20
156.416887592
 10
-27223.447248
 20
155.211945924
 10
-27220.2561649
 20
154.007004278
 10
-27217.0650818
 20
152.802062656
 10
-27213.8739986
 20
151.597121058
 10
-27210.6829155
 20
150.392179482
 10
-27207.4918324
 20
149.18723793
  0
LWPOLYLINE
  5
266
330
1F
100
AcDbEntity
  8
stray_beam_width
100
AcDbPolyline
 90
10
 70
0
43
0.0
 10
-27240.7423495
 20
155.457837363
 10
-27237.51989
 20
154.241038253
 10
-27234.2974306
 20
153.02423912
 10
-27231.0749711
 20
151.807439962
 10
-27227.8525117
 20
150.59064078
 10
-27224.6300522
 20
149.373841575
 10
-27221.4075928
 20
148.157042346
 10
-27218.1851334
 20
146.940243093
 10
-27214.9626739
 20
145.723443816
 10
-27211.7402145
 20
144.506644515
  0
LWPOLYLINE
  5
267
330
1F
100
AcDbEntity
  8
stray_beam_width
100
AcDbPolyline
 90
10
 70
0
43
0.0
 10
-27229.0710604
 20
125.412636431
 10
-27230.3678702
 20
128.75099213
 10
-27231.6646801
 20
132.089347819
 10
-27232.9614899
 20
135.427703498
 10
-27234.2582998
 20
138.766059167
 10
-27235.5551097
 20
142.104414827
 10
-27236.8519196
 20
145.442770476
 10
-27238.1487295
 20
148.781126115
 10
-27239.4455395
 20
152.119481744
 10
-27240.7423495
 20
155.457837363
  0
LWPOLYLINE
  5
268
330
1F
100
AcDbEntity
  8
stray_beam_width
100
AcDbPolyline
 90
10
 70
0
43
0.0
 10
-27224.6540177
 20
130.279049251
 10
-27225.9381914
 20
133.58490071
 10
-27227.2223651
 20
136.890752179
 10
-27228.5065388
 20
140.196603659
 10
-27229.7907124
 20
143.502455148
 10
-27231.074886
 20
146.808306646
 10
-27232.3590596
 20
150.114158155
 10
-27233.6432332
 20
153.420009673
 10
-27234.9274068
 20
156.725861201
 10
-27236.2115803
 20
160.031712739
  0
LWPOLYLINE
  5
269
330
1F
100
AcDbEntity
  8
stray_beam_width
100
AcDbPolyline
 90
10
 70
0
43
0.0
 10
-27256.7541121
 20
139.293737537
 10
-27253.1874349
 20
138.292105392
 10
-27249.6207578
 20
137.290473275
 10
-27246.0540807
 20
136.288841186
 10
-27242.4874035
 20
135.287209126
 10
-27238.9207264
 20
134.285577094
 10
-27235.3540492
 20
133.28394509
 10
-27231.787372
 20
132.282313115
 10
-27228.2206948
 20
131.280681169
 10
-27224.6540177
 20
130.279049251
  0
LWPOLYLINE
  5
26a
330
1F
100
AcDbEntity
  8
stray_beam_width
100
AcDbPolyline
 90
10
 70
0
43
0.0
 10
-27261.4867766
 20
134.516045963
 10
-27257.8850304
 20
133.504556131
 10
-27254.2832841
 20
132.493066269
 10
-27250.6815378
 20
131.481576379
 10
-27247.0797916
 20
130.47008646
 10
-27243.4780453
 20
129.458596512
 10
-27239.8762991
 20
128.447106536
 10
-27236.2745529
 20
127.43561653
 10
-27232.6728067
 20
126.424126495
 10
-27229.0710604
 20
125.412636431
  0
LWPOLYLINE
  5
26b
330
1F
100
AcDbEntity
  8
stray_beam_width
100
AcDbPolyline
 90
10
 70
0
43
0.0
 10
-27511.4093121
 20
26535.6530953
 10
-27511.1407219
 20
26538.982985
 10
-27510.8721317
 20
26542.3128747
 10
-27510.6035416
 20
26545.6427645
 10
-27510.3349514
 20
26548.9726542
 10
-27510.0663613
 20
26552.3025439
 10
-27509.7977711
 20
26555.6324337
 10
-27509.529181
 20
26558.9623234
 10
-27509.2605909
 20
26562.2922132
 10
-27508.9920007
 20
26565.6221029
  0
LWPOLYLINE
  5
26c
330
1F
100
AcDbEntity
  8
stray_beam_width
100
AcDbPolyline
 90
10
 70
0
43
0.0
 10
-27502.4246879
 20
26535.652582
 10
-27502.150106
 20
26539.0263767
 10
-27501.8755242
 20
26542.4001714
 10
-27501.6009423
 20
26545.7739661
 10
-27501.3263604
 20
26549.1477609
 10
-27501.0517785
 20
26552.5215556
 10
-27500.7771967
 20
26555.8953503
 10
-27500.5026148
 20
26559.2691451
 10
-27500.2280329
 20
26562.6429398
 10
-27499.953451
 20
26566.0167345
  0
LWPOLYLINE
  5
26d
330
1F
100
AcDbEntity
  8
stray_beam_width
100
AcDbPolyline
 90
10
 70
0
43
0.0
 10
-27504.8677278
 20
26565.8021725
 10
-27504.5962838
 20
26562.452218
 10
-27504.3248398
 20
26559.1022635
 10
-27504.0533958
 20
26555.752309
 10
-27503.7819517
 20
26552.4023545
 10
-27503.5105077
 20
26549.0524
 10
-27503.2390637
 20
26545.7024455
 10
-27502.9676197
 20
26542.352491
 10
-27502.6961756
 20
26539.0025365
 10
-27502.4247316
 20
26535.652582
  0
LWPOLYLINE
  5
26e
330
1F
100
AcDbEntity
  8
stray_beam_width
100
AcDbPolyline
 90
10
 70
0
43
0.0
 10
-27513.8134805
 20
26565.4115925
 10
-27513.5463556
 20
26562.1050928
 10
-27513.2792306
 20
26558.7985932
 10
-27513.0121056
 20
26555.4920935
 10
-27512.7449807
 20
26552.1855938
 10
-27512.4778557
 20
26548.8790941
 10
-27512.2107308
 20
26545.5725944
 10
-27511.9436059
 20
26542.2660947
 10
-27511.6764809
 20
26538.959595
 10
-27511.409356
 20
26535.6530953
  0
LWPOLYLINE
  5
26f
330
1F
100
AcDbEntity
  8
stray_beam_width
100
AcDbPolyline
 90
10
 70
0
43
0.0
 10
-27513.6154726
 20
26535.6528904
 10
-27513.6374735
 20
26538.9594128
 10
-27513.6594743
 20
26542.2659353
 10
-27513.6814752
 20
26545.5724578
 10
-27513.7034761
 20
26548.8789802
 10
-27513.725477
 20
26552.1855027
 10
-27513.7474778
 20
26555.4920251
 10
-27513.7694787
 20
26558.7985476
 10
-27513.7914796
 20
26562.1050701
 10
-27513.8134805
 20
26565.4115925
  0
LWPOLYLINE
  5
270
330
1F
100
AcDbEntity
  8
stray_beam_width
100
AcDbPolyline
 90
10
 70
0
43
0.0
 10
-27504.6743491
 20
26535.6529136
 10
-27504.6958356
 20
26539.0028312
 10
-27504.7173222
 20
26542.3527489
 10
-27504.7388087
 20
26545.7026666
 10
-27504.7602952
 20
26549.0525842
 10
-27504.7817817
 20
26552.4025019
 10
-27504.8032683
 20
26555.7524196
 10
-27504.8247548
 20
26559.1023372
 10
-27504.8462413
 20
26562.4522549
 10
-27504.8677278
 20
26565.8021725
  0
LWPOLYLINE
  5
271
330
1F
100
AcDbEntity
  8
stray_beam_width
100
AcDbPolyline
 90
10
 70
0
43
0.0
 10
-27508.9917685
 20
26565.622113
 10
-27493.8251623
 20
26675.7845675
 10
-27478.6585715
 20
26785.9470241
 10
-27463.4919955
 20
26896.1094828
 10
-27448.3254336
 20
27006.2719434
 10
-27433.1588854
 20
27116.4344058
 10
-27417.9923504
 20
27226.5968702
 10
-27402.8258281
 20
27336.7593362
 10
-27387.659318
 20
27446.921804
 10
-27372.4928197
 20
27557.0842734
  0
LWPOLYLINE
  5
272
330
1F
100
AcDbEntity
  8
stray_beam_width
100
AcDbPolyline
 90
10
 70
0
43
0.0
 10
-27499.9532187
 20
26566.0167446
 10
-27484.695231
 20
26675.9839165
 10
-27469.437228
 20
26785.9510862
 10
-27454.1792104
 20
26895.9182539
 10
-27438.9211786
 20
27005.8854196
 10
-27423.6631331
 20
27115.8525834
 10
-27408.4050746
 20
27225.8197455
 10
-27393.1470034
 20
27335.7869057
 10
-27377.8889199
 20
27445.7540643
 10
-27362.6308248
 20
27555.7212213
  0
LWPOLYLINE
  5
273
330
1F
100
AcDbEntity
  8
stray_beam_width
100
AcDbPolyline
 90
10
 70
0
43
0.0
 10
-27513.8134586
 20
26565.4115935
 10
-27512.7033987
 20
26676.5439104
 10
-27511.5933545
 20
26787.6762274
 10
-27510.4833258
 20
26898.8085446
 10
-27509.3733123
 20
27009.940862
 10
-27508.2633139
 20
27121.0731795
 10
-27507.1533304
 20
27232.2054972
 10
-27506.0433615
 20
27343.337815
 10
-27504.9334072
 20
27454.4701329
 10
-27503.8234671
 20
27565.602451
  0
LWPOLYLINE
  5
274
330
1F
100
AcDbEntity
  8
stray_beam_width
100
AcDbPolyline
 90
10
 70
0
43
0.0
 10
-27504.8677058
 20
26565.8021735
 10
-27503.7195297
 20
26676.8806039
 10
-27502.5713379
 20
26787.9590341
 10
-27501.4231307
 20
26899.0374642
 10
-27500.2749083
 20
27010.1158941
 10
-27499.1266708
 20
27121.1943238
 10
-27497.9784185
 20
27232.2727534
 10
-27496.8301515
 20
27343.3511829
 10
-27495.68187
 20
27454.4296122
 10
-27494.5335742
 20
27565.5080413
  0
LWPOLYLINE
  5
275
330
1F
100
AcDbEntity
  8
stray_beam_width
100
AcDbPolyline
 90
10
 70
0
43
0.0
 10
-27207.4918306
 20
149.187239905
 10
-26988.8753175
 20
110.373699623
 10
-26770.2587529
 20
71.5604498112
 10
-26551.6421367
 20
32.7474901667
 10
-26333.0254691
 20
-6.06517971052
 10
-26114.4087502
 20
-44.8775603143
 10
-25895.7919799
 20
-83.6896522326
 10
-25677.1751586
 20
-122.501456146
 10
-25458.5582862
 20
-161.312972827
 10
-25239.9413631
 20
-200.124203138
  0
LWPOLYLINE
  5
276
330
1F
100
AcDbEntity
  8
stray_beam_width
100
AcDbPolyline
 90
10
 70
0
43
0.0
 10
-27211.7402128
 20
144.506646477
 10
-26992.7558188
 20
105.626493909
 10
-26773.7714766
 20
66.7460498875
 10
-26554.7871861
 20
27.8653147169
 10
-26335.8029472
 20
-11.0157112023
 10
-26116.8187598
 20
-49.8970273743
 10
-25897.8346239
 20
-88.7786332092
 10
-25678.8505392
 20
-127.660528023
 10
-25459.8665058
 20
-166.542711041
 10
-25240.8825233
 20
-205.425181395
  0
LWPOLYLINE
  5
277
330
1F
100
AcDbEntity
  8
stray_beam_width
100
AcDbPolyline
 90
10
 70
0
43
0.0
 10
-27224.654015
 20
130.279052151
 10
-26582.3439538
 20
109.50165342
 10
-25940.0337953
 20
88.7272614803
 10
-25297.7235402
 20
67.9558552375
 10
-24655.4131895
 20
47.1874032785
 10
-24013.1027446
 20
26.4218644181
 10
-23370.792207
 20
5.65918839456
 10
-22728.4815787
 20
-15.1006833104
 10
-22086.1708619
 20
-35.8578165578
 10
-21443.8600587
 20
-56.6122835749
  0
LWPOLYLINE
  5
278
330
1F
100
AcDbEntity
  8
stray_beam_width
100
AcDbPolyline
 90
10
 70
0
43
0.0
 10
-27229.0710578
 20
125.412639303
 10
-26586.3129168
 20
104.614983484
 10
-25943.5548731
 20
83.8143165828
 10
-25300.7969262
 20
63.0106596795
 10
-24658.039075
 20
42.2040442035
 10
-24015.2813182
 20
21.3945113866
 10
-23372.5236541
 20
0.582111565193
 10
-22729.7660809
 20
-20.2330966417
 10
-22087.0085964
 20
-41.0510472496
 10
-21444.2511983
 20
-61.8716678883
  0
LWPOLYLINE
  5
279
330
1F
100
AcDbEntity
  8
stray_beam_width
100
AcDbPolyline
 90
10
 70
0
43
0.0
 10
-21443.8600598
 20
-56.6122980483
 10
-21440.5199878
 20
-56.76404931
 10
-21437.1799157
 20
-56.9158005383
 10
-21433.8398437
 20
-57.0675517334
 10
-21430.4997716
 20
-57.2193028952
 10
-21427.1596996
 20
-57.3710540236
 10
-21423.8196275
 20
-57.5228051187
 10
-21420.4795555
 20
-57.6745561805
 10
-21417.1394834
 20
-57.826307209
 10
-21413.7994114
 20
-57.9780582041
  0
LWPOLYLINE
  5
27a
330
1F
100
AcDbEntity
  8
stray_beam_width
100
AcDbPolyline
 90
10
 70
0
43
0.0
 10
-21444.2511994
 20
-61.8716822808
 10
-21440.9008906
 20
-62.0234801137
 10
-21437.5505817
 20
-62.1752779801
 10
-21434.2002729
 20
-62.32707588
 10
-21430.8499641
 20
-62.4788738134
 10
-21427.4996553
 20
-62.6306717803
 10
-21424.1493465
 20
-62.7824697808
 10
-21420.7990377
 20
-62.9342678148
 10
-21417.4487289
 20
-63.0860658823
 10
-21414.0984201
 20
-63.2378639834
  0
LWPOLYLINE
  5
27b
330
1F
100
AcDbEntity
  8
stray_beam_width
100
AcDbPolyline
 90
36
 70
0
43
0.0
 10
-21444.2511959
 20
-61.8716351615
 10
-21529.5405935
 20
-51.9772185016
 10
-21614.8299962
 20
-42.0828450676
 10
-21700.1194037
 20
-32.1885123439
 10
-21785.4088156
 20
-22.2942180045
 10
-21870.6982318
 20
-12.3999598957
 10
-21955.9876519
 20
-2.50573602089
 10
-22041.2770759
 20
7.38845547372
 10
-22126.5665034
 20
17.2826163114
 10
-22211.8559343
 20
27.1767480963
 10
-22297.1453684
 20
37.070852323
 10
-22382.4348055
 20
46.9649303864
 10
-22467.7242456
 20
56.8589835892
 10
-22553.0136884
 20
66.7530131495
 10
-22638.3031338
 20
76.6470202078
 10
-22723.5925818
 20
86.5410058326
 10
-22808.8820321
 20
96.4349710264
 10
-22894.1714847
 20
106.32891673
 10
-22979.4609395
 20
116.222843829
 10
-23064.7503963
 20
126.116753155
 10
-23150.0398551
 20
136.01064549
 10
-23235.3293158
 20
145.904521575
 10
-23320.6187784
 20
155.798382104
 10
-23405.9082426
 20
165.692227736
 10
-23491.1977086
 20
175.586059091
 10
-23576.4871761
 20
185.479876756
 10
-23661.7766452
 20
195.373681287
 10
-23747.0661157
 20
205.267473209
 10
-23832.3555877
 20
215.161253021
 10
-23917.645061
 20
225.055021196
 10
-24002.9345356
 20
234.948778182
 10
-24088.2240114
 20
244.842524404
 10
-24173.5134885
 20
254.736260267
 10
-24258.8029668
 20
264.629986156
 10
-24344.0924461
 20
274.523702436
 10
-24429.3819266
 20
284.417409455
  0
LWPOLYLINE
  5
27c
330
1F
100
AcDbEntity
  8
stray_beam_width
100
AcDbPolyline
 90
36
 70
0
43
0.0
 10
-21443.8600563
 20
-56.6122513703
 10
-21529.1439593
 20
-46.6092825215
 10
-21614.4278572
 20
-36.6062704465
 10
-21699.7117504
 20
-26.6032176612
 10
-21784.9956391
 20
-16.6001264915
 10
-21870.2795236
 20
-6.59699909122
 10
-21955.563404
 20
3.40616254302
 10
-22040.8472807
 20
13.4093565573
 10
-22126.1311538
 20
23.4125812284
 10
-22211.4150236
 20
33.4158349521
 10
-22296.6988901
 20
43.4191162337
 10
-22381.9827536
 20
53.4224236784
 10
-22467.2666141
 20
63.4257559835
 10
-22552.5504719
 20
73.4291119308
 10
-22637.8343271
 20
83.4324903798
 10
-22723.1181798
 20
93.4358902619
 10
-22808.4020301
 20
103.439310575
 10
-22893.6858781
 20
113.442750377
 10
-22978.969724
 20
123.446208784
 10
-23064.2535678
 20
133.449684965
 10
-23149.5374096
 20
143.453178134
 10
-23234.8212495
 20
153.456687555
 10
-23320.1050876
 20
163.46021253
 10
-23405.3889239
 20
173.463752403
 10
-23490.6727586
 20
183.467306552
 10
-23575.9565917
 20
193.47087439
 10
-23661.2404232
 20
203.474455363
 10
-23746.5242533
 20
213.478048944
 10
-23831.808082
 20
223.481654634
 10
-23917.0919093
 20
233.485271961
 10
-24002.3757353
 20
243.488900478
 10
-24087.6595601
 20
253.492539757
 10
-24172.9433836
 20
263.496189395
 10
-24258.227206
 20
273.499849008
 10
-24343.5110273
 20
283.503518229
 10
-24428.7948475
 20
293.50719671
  0
LWPOLYLINE
  5
27d
330
1F
100
AcDbEntity
  8
stray_beam_width
100
AcDbPolyline
 90
10
 70
0
43
0.0
 10
-24429.3819298
 20
284.417358919
 10
-24432.6930327
 20
284.748104692
 10
-24436.0041357
 20
285.078850459
 10
-24439.3152386
 20
285.409596219
 10
-24442.6263416
 20
285.740341973
 10
-24445.9374445
 20
286.07108772
 10
-24449.2485474
 20
286.401833461
 10
-24452.5596504
 20
286.732579196
 10
-24455.8707533
 20
287.063324924
 10
-24459.1818563
 20
287.394070646
  0
LWPOLYLINE
  5
27e
330
1F
100
AcDbEntity
  8
stray_beam_width
100
AcDbPolyline
 90
10
 70
0
43
0.0
 10
-24428.7948507
 20
293.507146319
 10
-24432.1004191
 20
293.840964288
 10
-24435.4059874
 20
294.174782263
 10
-24438.7115557
 20
294.508600245
 10
-24442.0171241
 20
294.842418233
 10
-24445.3226924
 20
295.176236228
 10
-24448.6282608
 20
295.510054228
 10
-24451.9338291
 20
295.843872235
 10
-24455.2393974
 20
296.177690249
 10
-24458.5449658
 20
296.511508268
  0
LWPOLYLINE
  5
27f
330
1F
100
AcDbEntity
  8
stray_beam_width
100
AcDbPolyline
 90
10
 70
0
43
0.0
 10
-24428.7948524
 20
293.507120279
 10
-24317.719158
 20
292.075964472
 10
-24206.6434635
 20
290.644823724
 10
-24095.5677687
 20
289.213698051
 10
-23984.4920737
 20
287.782587469
 10
-23873.4163786
 20
286.351491995
 10
-23762.3406832
 20
284.920411643
 10
-23651.2649877
 20
283.489346429
 10
-23540.1892919
 20
282.05829637
 10
-23429.113596
 20
280.627261481
  0
LWPOLYLINE
  5
280
330
1F
100
AcDbEntity
  8
stray_beam_width
100
AcDbPolyline
 90
10
 70
0
43
0.0
 10
-24429.3819315
 20
284.417332092
 10
-24318.2539704
 20
282.988804513
 10
-24207.1260094
 20
281.560261861
 10
-24095.9980486
 20
280.13170412
 10
-23984.870088
 20
278.703131274
 10
-23873.7421276
 20
277.274543307
 10
-23762.6141674
 20
275.845940203
 10
-23651.4862074
 20
274.417321946
 10
-23540.3582476
 20
272.988688521
 10
-23429.230288
 20
271.560039911
  0
LWPOLYLINE
  5
281
330
1F
100
AcDbEntity
  8
stray_beam_width
100
AcDbPolyline
 90
18
 70
0
43
0.0
 10
-24459.1818505
 20
287.394153596
 10
-24517.6421566
 20
294.026966191
 10
-24576.1024632
 20
300.659774764
 10
-24634.5627702
 20
307.292579432
 10
-24693.0230777
 20
313.925380311
 10
-24751.4833856
 20
320.55817751
 10
-24809.9436939
 20
327.190971134
 10
-24868.4040026
 20
333.823761286
 10
-24926.8643117
 20
340.456548063
 10
-24985.3246212
 20
347.089331559
 10
-25043.784931
 20
353.722111865
 10
-25102.2452412
 20
360.354889069
 10
-25160.7055517
 20
366.987663254
 10
-25219.1658626
 20
373.620434502
 10
-25277.6261738
 20
380.253202892
 10
-25336.0864853
 20
386.885968499
 10
-25394.5467971
 20
393.518731395
 10
-25453.0071092
 20
400.151491652
  0
LWPOLYLINE
  5
282
330
1F
100
AcDbEntity
  8
stray_beam_width
100
AcDbPolyline
 90
18
 70
0
43
0.0
 10
-24458.54496
 20
296.511591227
 10
-24516.9712435
 20
303.233755637
 10
-24575.3975266
 20
309.955924066
 10
-24633.8238092
 20
316.678096395
 10
-24692.2500914
 20
323.400272511
 10
-24750.6763732
 20
330.122452303
 10
-24809.1026545
 20
336.844635665
 10
-24867.5289355
 20
343.566822498
 10
-24925.9552161
 20
350.289012702
 10
-24984.3814963
 20
357.011206184
 10
-25042.8077762
 20
363.733402853
 10
-25101.2340557
 20
370.455602621
 10
-25159.6603348
 20
377.177805406
 10
-25218.0866136
 20
383.900011125
 10
-25276.5128921
 20
390.6222197
 10
-25334.9391703
 20
397.344431056
 10
-25393.3654482
 20
404.06664512
 10
-25451.7917257
 20
410.788861821
  0
LWPOLYLINE
  5
283
330
1F
100
AcDbEntity
  8
stray_beam_width
100
AcDbPolyline
 90
10
 70
0
43
0.0
 10
-21413.7994115
 20
-57.9780602689
 10
-21302.783288
 20
-62.4524545761
 10
-21191.7671614
 20
-66.9267705542
 10
-21080.7510316
 20
-71.401007309
 10
-20969.7348986
 20
-75.8751639399
 10
-20858.7187623
 20
-80.3492395403
 10
-20747.7026227
 20
-84.8232331972
 10
-20636.6864798
 20
-89.2971439922
 10
-20525.6703336
 20
-93.770971001
 10
-20414.6541839
 20
-98.2447132938
  0
LWPOLYLINE
  5
284
330
1F
100
AcDbEntity
  8
stray_beam_width
100
AcDbPolyline
 90
10
 70
0
43
0.0
 10
-21414.0984202
 20
-63.2378660482
 10
-21303.0717885
 20
-67.6926903785
 10
-21192.04516
 20
-72.147593051
 10
-21081.0185346
 20
-76.6025749601
 10
-20969.9919125
 20
-81.0576370065
 10
-20858.9652937
 20
-85.5127800974
 10
-20747.9386781
 20
-89.9680051456
 10
-20636.9120659
 20
-94.4233130701
 10
-20525.885457
 20
-98.8787047952
 10
-20414.8588516
 20
-103.334181251
  0
LWPOLYLINE
  5
285
330
1F
100
AcDbEntity
  8
stray_beam_width
100
AcDbPolyline
 90
10
 70
0
43
0.0
 10
-27777.402567
 20
155.45879624
 10
-27780.6250249
 20
154.242006692
 10
-27783.8474828
 20
153.02521712
 10
-27787.0699407
 20
151.808427524
 10
-27790.2923986
 20
150.591637904
 10
-27793.5148565
 20
149.374848261
 10
-27796.7373144
 20
148.158058593
 10
-27799.9597723
 20
146.941268902
 10
-27803.1822301
 20
145.724479187
 10
-27806.404688
 20
144.507689448
  0
LWPOLYLINE
  5
286
330
1F
100
AcDbEntity
  8
stray_beam_width
100
AcDbPolyline
 90
10
 70
0
43
0.0
 10
-27781.9333438
 20
160.032687543
 10
-27785.1244252
 20
158.827755328
 10
-27788.3155065
 20
157.622823137
 10
-27791.5065879
 20
156.417890969
 10
-27794.6976694
 20
155.212958825
 10
-27797.8887508
 20
154.008026704
 10
-27801.0798322
 20
152.803094606
 10
-27804.2709136
 20
151.598162532
 10
-27807.4619951
 20
150.393230481
 10
-27810.6530765
 20
149.188298453
  0
LWPOLYLINE
  5
287
330
1F
100
AcDbEntity
  8
stray_beam_width
100
AcDbPolyline
 90
10
 70
0
43
0.0
 10
-27793.4908731
 20
130.280055199
 10
-27792.206703
 20
133.585903198
 10
-27790.9225331
 20
136.891751207
 10
-27789.6383631
 20
140.197599226
 10
-27788.3541931
 20
143.503447254
 10
-27787.0700232
 20
146.809295292
 10
-27785.7858533
 20
150.11514334
 10
-27784.5016834
 20
153.420991398
 10
-27783.2175136
 20
156.726839465
 10
-27781.9333438
 20
160.032687543
  0
LWPOLYLINE
  5
288
330
1F
100
AcDbEntity
  8
stray_beam_width
100
AcDbPolyline
 90
10
 70
0
43
0.0
 10
-27789.073823
 20
125.413625415
 10
-27787.7770168
 20
128.751977769
 10
-27786.4802107
 20
132.090330112
 10
-27785.1834045
 20
135.428682446
 10
-27783.8865983
 20
138.76703477
 10
-27782.5897921
 20
142.105387084
 10
-27781.2929859
 20
145.443739388
 10
-27779.9961796
 20
148.782091682
 10
-27778.6993733
 20
152.120443966
 10
-27777.402567
 20
155.45879624
  0
LWPOLYLINE
  5
289
330
1F
100
AcDbEntity
  8
stray_beam_width
100
AcDbPolyline
 90
10
 70
0
43
0.0
 10
-27756.6581194
 20
134.516946137
 10
-27760.2598643
 20
133.505466173
 10
-27763.8616092
 20
132.493986179
 10
-27767.463354
 20
131.482506157
 10
-27771.0650989
 20
130.471026106
 10
-27774.6668437
 20
129.459546025
 10
-27778.2685885
 20
128.448065916
 10
-27781.8703333
 20
127.436585778
 10
-27785.4720782
 20
126.425105611
 10
-27789.073823
 20
125.413625415
  0
LWPOLYLINE
  5
28a
330
1F
100
AcDbEntity
  8
stray_beam_width
100
AcDbPolyline
 90
10
 70
0
43
0.0
 10
-27761.3907927
 20
139.294655122
 10
-27764.9574682
 20
138.293032795
 10
-27768.5241438
 20
137.291410496
 10
-27772.0908194
 20
136.289788226
 10
-27775.657495
 20
135.288165984
 10
-27779.2241706
 20
134.28654377
 10
-27782.7908462
 20
133.284921585
 10
-27786.3575218
 20
132.283299428
 10
-27789.9241974
 20
131.281677299
 10
-27793.4908731
 20
130.280055199
  0
LWPOLYLINE
  5
28b
330
1F
100
AcDbEntity
  8
stray_beam_width
100
AcDbPolyline
 90
10
 70
0
43
0.0
 10
-27510.5296673
 20
26535.6531406
 10
-27510.2164971
 20
26538.989239
 10
-27509.903327
 20
26542.3253375
 10
-27509.5901569
 20
26545.6614359
 10
-27509.2769868
 20
26548.9975344
 10
-27508.9638166
 20
26552.3336328
 10
-27508.6506465
 20
26555.6697313
 10
-27508.3374764
 20
26559.0058297
 10
-27508.0243063
 20
26562.3419282
 10
-27507.7111362
 20
26565.6780267
  0
LWPOLYLINE
  5
28c
330
1F
100
AcDbEntity
  8
stray_beam_width
100
AcDbPolyline
 90
10
 70
0
43
0.0
 10
-27501.5347103
 20
26535.6524133
 10
-27501.2149468
 20
26539.0325169
 10
-27500.8951834
 20
26542.4126205
 10
-27500.5754199
 20
26545.7927241
 10
-27500.2556564
 20
26549.1728278
 10
-27499.9358929
 20
26552.5529314
 10
-27499.6161294
 20
26555.933035
 10
-27499.296366
 20
26559.3131386
 10
-27498.9766025
 20
26562.6932422
 10
-27498.6568389
 20
26566.0733458
  0
LWPOLYLINE
  5
28d
330
1F
100
AcDbEntity
  8
stray_beam_width
100
AcDbPolyline
 90
10
 70
0
43
0.0
 10
-27504.3767437
 20
26565.8236094
 10
-27504.0609679
 20
26562.4712543
 10
-27503.7451921
 20
26559.1188991
 10
-27503.4294163
 20
26555.766544
 10
-27503.1136404
 20
26552.4141889
 10
-27502.7978646
 20
26549.0618338
 10
-27502.4820888
 20
26545.7094787
 10
-27502.1663129
 20
26542.3571235
 10
-27501.8505371
 20
26539.0047684
 10
-27501.5347612
 20
26535.6524133
  0
LWPOLYLINE
  5
28e
330
1F
100
AcDbEntity
  8
stray_beam_width
100
AcDbPolyline
 90
10
 70
0
43
0.0
 10
-27513.3276174
 20
26565.4328058
 10
-27513.0167397
 20
26562.1239541
 10
-27512.705862
 20
26558.8151024
 10
-27512.3949843
 20
26555.5062507
 10
-27512.0841067
 20
26552.197399
 10
-27511.773229
 20
26548.8885473
 10
-27511.4623514
 20
26545.5796956
 10
-27511.1514737
 20
26542.270844
 10
-27510.8405961
 20
26538.9619923
 10
-27510.5297185
 20
26535.6531406
  0
LWPOLYLINE
  5
28f
330
1F
100
AcDbEntity
  8
stray_beam_width
100
AcDbPolyline
 90
10
 70
0
43
0.0
 10
-27513.5185656
 20
26535.6529021
 10
-27513.4973491
 20
26538.9617803
 10
-27513.4761326
 20
26542.2706585
 10
-27513.4549162
 20
26545.5795367
 10
-27513.4336997
 20
26548.8884148
 10
-27513.4124832
 20
26552.197293
 10
-27513.3912667
 20
26555.5061712
 10
-27513.3700503
 20
26558.8150494
 10
-27513.3488338
 20
26562.1239276
 10
-27513.3276174
 20
26565.4328058
  0
LWPOLYLINE
  5
290
330
1F
100
AcDbEntity
  8
stray_beam_width
100
AcDbPolyline
 90
10
 70
0
43
0.0
 10
-27504.5774309
 20
26535.6529021
 10
-27504.5551323
 20
26539.0052029
 10
-27504.5328338
 20
26542.3575037
 10
-27504.5105352
 20
26545.7098045
 10
-27504.4882366
 20
26549.0621053
 10
-27504.4659381
 20
26552.4144061
 10
-27504.4436395
 20
26555.7667069
 10
-27504.4213409
 20
26559.1190078
 10
-27504.3990423
 20
26562.4713086
 10
-27504.3767437
 20
26565.8236094
  0
LWPOLYLINE
  5
291
330
1F
100
AcDbEntity
  8
stray_beam_width
100
AcDbPolyline
 90
10
 70
0
43
0.0
 10
-27507.7108767
 20
26565.678038
 10
-27490.4313707
 20
26675.5386593
 10
-27473.15188
 20
26785.3992831
 10
-27455.8724042
 20
26895.2599091
 10
-27438.5929426
 20
27005.1205375
 10
-27421.3134947
 20
27114.981168
 10
-27404.03406
 20
27224.8418005
 10
-27386.754638
 20
27334.7024351
 10
-27369.4752283
 20
27444.5630717
 10
-27352.1958304
 20
27554.42371
  0
LWPOLYLINE
  5
292
330
1F
100
AcDbEntity
  8
stray_beam_width
100
AcDbPolyline
 90
10
 70
0
43
0.0
 10
-27498.6565793
 20
26566.0733571
 10
-27481.2921463
 20
26675.7178701
 10
-27463.927698
 20
26785.3623807
 10
-27446.563235
 20
26895.0068889
 10
-27429.1987577
 20
27004.6513949
 10
-27411.8342668
 20
27114.2958988
 10
-27394.4697628
 20
27223.9404006
 10
-27377.1052461
 20
27333.5849003
 10
-27359.7407171
 20
27443.2293982
 10
-27342.3761764
 20
27552.8738942
  0
LWPOLYLINE
  5
293
330
1F
100
AcDbEntity
  8
stray_beam_width
100
AcDbPolyline
 90
10
 70
0
43
0.0
 10
-27513.3275875
 20
26565.4328071
 10
-27510.1104296
 20
26676.5335315
 10
-27506.8932874
 20
26787.6342564
 10
-27503.6761606
 20
26898.7349817
 10
-27500.4590491
 20
27009.8357074
 10
-27497.2419527
 20
27120.9364336
 10
-27494.0248712
 20
27232.0371603
 10
-27490.8078044
 20
27343.1378873
 10
-27487.5907521
 20
27454.2386148
 10
-27484.3737142
 20
27565.3393427
  0
LWPOLYLINE
  5
294
330
1F
100
AcDbEntity
  8
stray_beam_width
100
AcDbPolyline
 90
10
 70
0
43
0.0
 10
-27504.3767139
 20
26565.8236107
 10
-27501.1229931
 20
26676.850875
 10
-27497.8692568
 20
26787.8781388
 10
-27494.6155049
 20
26898.9054022
 10
-27491.3617379
 20
27009.9326652
 10
-27488.1079557
 20
27120.9599277
 10
-27484.8541587
 20
27231.9871898
 10
-27481.600347
 20
27343.0144515
 10
-27478.3465208
 20
27454.0417127
 10
-27475.0926803
 20
27565.0689735
  0
LWPOLYLINE
  5
295
330
1F
100
AcDbEntity
  8
stray_beam_width
100
AcDbPolyline
 90
10
 70
0
43
0.0
 10
-27806.4046898
 20
144.507691411
 10
-28025.3892149
 20
105.628270851
 10
-28244.3736883
 20
66.7485588392
 10
-28463.35811
 20
27.8685556786
 10
-28682.3424801
 20
-11.0117382298
 10
-28901.3267986
 20
-49.8923223903
 10
-29120.3110657
 20
-88.7731962128
 10
-29339.2952815
 20
-127.654359014
 10
-29558.2794462
 20
-166.535810017
 10
-29777.2635598
 20
-205.417548356
  0
LWPOLYLINE
  5
296
330
1F
100
AcDbEntity
  8
stray_beam_width
100
AcDbPolyline
 90
10
 70
0
43
0.0
 10
-27810.6530783
 20
149.188300428
 10
-28029.26972
 20
110.375491496
 10
-28247.8864133
 20
71.5629730347
 10
-28466.5031581
 20
32.7507447392
 10
-28685.1199543
 20
-6.06119378963
 10
-28903.7368019
 20
-44.8728430459
 10
-29122.3537007
 20
-83.6842036174
 10
-29340.9706507
 20
-122.495276185
 10
-29559.5876517
 20
-161.30606152
 10
-29778.2047035
 20
-200.116560487
  0
LWPOLYLINE
  5
297
330
1F
100
AcDbEntity
  8
stray_beam_width
100
AcDbPolyline
 90
10
 70
0
43
0.0
 10
-27789.0738256
 20
125.413628287
 10
-28011.4162436
 20
118.220442023
 10
-28233.7586499
 20
111.0268944
 10
-28456.1010445
 20
103.832985855
 10
-28678.4434275
 20
96.638716983
 10
-28900.7857989
 20
89.4440885296
 10
-29123.1281586
 20
82.2491013943
 10
-29345.4705068
 20
75.0537566266
 10
-29567.8128435
 20
67.8580554236
 10
-29790.1551687
 20
60.6619991285
  0
LWPOLYLINE
  5
298
330
1F
100
AcDbEntity
  8
stray_beam_width
100
AcDbPolyline
 90
10
 70
0
43
0.0
 10
-27793.4908757
 20
130.2800581
 10
-28015.3605389
 20
123.103473353
 10
-28237.2302138
 20
115.927248424
 10
-28459.0999003
 20
108.751382876
 10
-28680.9695984
 20
101.575876116
 10
-28902.8393081
 20
94.4007274005
 10
-29124.7090293
 20
87.2259358352
 10
-29346.578762
 20
80.0515003759
 10
-29568.4485063
 20
72.8774198322
 10
-29790.318262
 20
65.7036928692
  0
LWPOLYLINE
  5
201
330
1F
100
AcDbEntity
  8
input_beam_width
100
AcDbPolyline
 90
10
 70
0
43
0.0
 10
-21443.520551
 20
-52.0807524028
 10
-21440.1895757
 20
-52.2324471649
 10
-21436.8586005
 20
-52.3841418375
 10
-21433.5276252
 20
-52.5358364207
 10
-21430.19665
 20
-52.6875309144
 10
-21426.8656747
 20
-52.8392253187
 10
-21423.5346995
 20
-52.9909196335
 10
-21420.2037242
 20
-53.1426138588
 10
-21416.8727489
 20
-53.2943079946
 10
-21413.5417737
 20
-53.4460020408
  0
LWPOLYLINE
  5
202
330
1F
100
AcDbEntity
  8
input_beam_width
100
AcDbPolyline
 90
10
 70
0
43
0.0
 10
-21444.5767267
 20
-66.281104254
 10
-21441.2181014
 20
-66.4329254103
 10
-21437.859476
 20
-66.5847466574
 10
-21434.5008506
 20
-66.7365679954
 10
-21431.1422252
 20
-66.8883894244
 10
-21427.7835998
 20
-67.0402109443
 10
-21424.4249744
 20
-67.1920325552
 10
-21421.0663491
 20
-67.3438542571
 10
-21417.7077237
 20
-67.49567605
 10
-21414.3490983
 20
-67.6474979339
  0
LWPOLYLINE
  5
203
330
1F
100
AcDbEntity
  8
input_beam_width
100
AcDbPolyline
 90
10
 70
0
43
0.0
 10
-27220.8542522
 20
134.465385693
 10
-26578.9293048
 20
113.706512165
 10
-25937.004095
 20
92.9557470132
 10
-25295.0786247
 20
72.2130332436
 10
-24653.1528968
 20
51.4782860778
 10
-24011.2269147
 20
30.7513944215
 10
-23369.3006828
 20
10.0322227399
 10
-22727.3742064
 20
-10.6793867349
 10
-22085.447491
 20
-31.3836115432
 10
-21443.520543
 20
-52.0806463681
  0
LWPOLYLINE
  5
204
330
1F
100
AcDbEntity
  8
input_beam_width
100
AcDbPolyline
 90
10
 70
0
43
0.0
 10
-27232.7802902
 20
121.32604638
 10
-26589.6455358
 20
100.512478749
 10
-25946.5110448
 20
79.6907714635
 10
-25303.3768153
 20
58.8609814097
 10
-24660.2428445
 20
38.0231934862
 10
-24017.1091288
 20
17.1775191268
 10
-23373.9756639
 20
-3.67590558822
 10
-22730.8424446
 20
-24.5369221574
 10
-22087.7094651
 20
-45.4053521405
 10
-21444.5767191
 20
-66.280999812
  0
LWPOLYLINE
  5
205
330
1F
100
AcDbEntity
  8
input_beam_width
100
AcDbPolyline
 90
15
 70
0
43
0.0
 10
-27265.4610737
 20
130.503937055
 10
-27283.3715619
 20
2016.58920706
 10
-27301.3607739
 20
3902.6737316
 10
-27319.4242393
 20
5788.75755302
 10
-27337.5555761
 20
7674.84073175
 10
-27355.7473543
 20
9560.92333814
 10
-27373.9918818
 20
11447.005445
 10
-27392.2817842
 20
13333.0871223
 10
-27410.6103505
 20
15219.1684334
 10
-27428.9716868
 20
17105.2494342
 10
-27447.360738
 20
18991.3301726
 10
-27465.7732344
 20
20877.4106889
 10
-27484.2056027
 20
22763.4910171
 10
-27502.6548662
 20
24649.5711853
 10
-27521.1185499
 20
26535.6512169
  0
LWPOLYLINE
  5
206
330
1F
100
AcDbEntity
  8
input_beam_width
100
AcDbPolyline
 90
15
 70
0
43
0.0
 10
-27252.6828543
 20
143.403729544
 10
-27270.4827227
 20
2028.56094774
 10
-27288.203965
 20
3913.71891046
 10
-27305.8510591
 20
5798.87757531
 10
-27323.4303858
 20
7684.03688187
 10
-27340.9493676
 20
9569.19675984
 10
-27358.4156848
 20
11454.3571365
 10
-27375.8366988
 20
13339.5179422
 10
-27393.2191081
 20
15224.6791134
 10
-27410.5687953
 20
17109.8405945
 10
-27427.8908058
 20
18995.0023376
 10
-27445.1894013
 20
20880.1643025
 10
-27462.4681491
 20
22765.3264553
 10
-27479.7300206
 20
24650.4887679
 10
-27496.9774871
 20
26535.651217
  0
LWPOLYLINE
  5
207
330
1F
100
AcDbEntity
  8
input_beam_width
100
AcDbPolyline
 90
15
 70
0
43
0.0
 10
-27496.9774501
 20
26535.6512169
 10
-27515.4411673
 20
24649.5677561
 10
-27533.8904643
 20
22763.4841586
 10
-27552.322866
 20
20877.4004012
 10
-27570.7353959
 20
18991.3164556
 10
-27589.1244803
 20
17105.2322881
 10
-27607.4858496
 20
15219.147858
 10
-27625.8144488
 20
13333.0631177
 10
-27644.1043839
 20
11446.9780112
 10
-27662.3489439
 20
9560.89247508
 10
-27680.5407541
 20
7674.80643945
 10
-27698.6721227
 20
5788.71983148
 10
-27716.7356194
 20
3902.63258082
 10
-27734.7248624
 20
2016.54462702
 10
-27752.6353811
 20
130.45592777
  0
LWPOLYLINE
  5
208
330
1F
100
AcDbEntity
  8
input_beam_width
100
AcDbPolyline
 90
15
 70
0
43
0.0
 10
-27521.1185129
 20
26535.651217
 10
-27538.3660108
 20
24650.4853403
 10
-27555.6279137
 20
22765.3196001
 10
-27572.906693
 20
20880.1540196
 10
-27590.2053201
 20
18994.9886271
 10
-27607.5273623
 20
17109.8234564
 10
-27624.8770813
 20
15224.6585477
 10
-27642.2595227
 20
13339.4939488
 10
-27659.6805689
 20
11454.3297155
 10
-27677.1469186
 20
9569.16591126
 10
-27694.6659332
 20
7684.00260567
 10
-27712.2452932
 20
5798.83987151
 10
-27729.8924208
 20
3913.67777906
 10
-27747.6136971
 20
2028.51638873
 10
-27765.4135998
 20
143.355742946
  0
LWPOLYLINE
  5
209
330
1F
100
AcDbEntity
  8
input_beam_width
100
AcDbPolyline
 90
10
 70
0
43
0.0
 10
-27252.6828794
 20
143.403704232
 10
-27249.1463675
 20
142.410555057
 10
-27245.6098556
 20
141.417405957
 10
-27242.0733437
 20
140.424256932
 10
-27238.5368317
 20
139.431107983
 10
-27235.0003197
 20
138.437959109
 10
-27231.4638077
 20
137.44481031
 10
-27227.9272957
 20
136.451661587
 10
-27224.3907837
 20
135.458512939
 10
-27220.8542716
 20
134.465364366
  0
LWPOLYLINE
  5
20a
330
1F
100
AcDbEntity
  8
input_beam_width
100
AcDbPolyline
 90
10
 70
0
43
0.0
 10
-27265.461098
 20
130.50391258
 10
-27261.8298991
 20
129.484147679
 10
-27258.1987003
 20
128.464382699
 10
-27254.5675015
 20
127.444617639
 10
-27250.9363027
 20
126.4248525
 10
-27247.3051039
 20
125.405087281
 10
-27243.6739051
 20
124.385321983
 10
-27240.0427064
 20
123.365556606
 10
-27236.4115077
 20
122.345791149
 10
-27232.780309
 20
121.326025613
  0
LWPOLYLINE
  5
20b
330
1F
100
AcDbEntity
  8
input_beam_width
100
AcDbPolyline
 90
36
 70
0
43
0.0
 10
-21444.5767013
 20
-66.2807579494
 10
-21529.8706374
 20
-56.4772767725
 10
-21615.1645872
 20
-46.673912305
 10
-21700.4585498
 20
-36.8706577545
 10
-21785.7525246
 20
-27.0675068409
 10
-21871.0465107
 20
-17.2644537499
 10
-21956.3405076
 20
-7.46149309032
 10
-22041.6345147
 20
2.34138014275
 10
-22126.9285314
 20
12.1441706022
 10
-22212.2225573
 20
21.9468826187
 10
-22297.5165919
 20
31.7495202282
 10
-22382.8106348
 20
41.5520871964
 10
-22468.1046854
 20
51.3545870405
 10
-22553.3987435
 20
61.1570230496
 10
-22638.6928087
 20
70.9593983028
 10
-22723.9868807
 20
80.7617156853
 10
-22809.2809591
 20
90.5639779035
 10
-22894.5750436
 20
100.366187499
 10
-22979.869134
 20
110.168346859
 10
-23065.16323
 20
119.970458231
 10
-23150.4573313
 20
129.77252373
 10
-23235.7514378
 20
139.574545351
 10
-23321.0455491
 20
149.376524971
 10
-23406.3396652
 20
159.178464368
 10
-23491.6337857
 20
168.980365216
 10
-23576.9279106
 20
178.782229102
 10
-23662.2220396
 20
188.584057524
 10
-23747.5161725
 20
198.385851904
 10
-23832.8103093
 20
208.187613585
 10
-23918.1044498
 20
217.989343845
 10
-24003.3985937
 20
227.791043893
 10
-24088.6927411
 20
237.592714879
 10
-24173.9868917
 20
247.394357896
 10
-24259.2810455
 20
257.19597398
 10
-24344.5752023
 20
266.99756412
 10
-24429.869362
 20
276.799129256
  0
LWPOLYLINE
  5
20c
330
1F
100
AcDbEntity
  8
input_beam_width
100
AcDbPolyline
 90
36
 70
0
43
0.0
 10
-21443.5205256
 20
-52.0804147834
 10
-21528.7996234
 20
-41.9838420382
 10
-21614.0787076
 20
-31.887152582
 10
-21699.3577789
 20
-21.7903532079
 10
-21784.6368382
 20
-11.6934501964
 10
-21869.9158861
 20
-1.5964493625
 10
-21955.1949231
 20
8.50064390249
 10
-22040.47395
 20
18.5978245931
 10
-22125.7529672
 20
28.6950880563
 10
-22211.0319753
 20
38.7924299609
 10
-22296.3109747
 20
48.889846271
 10
-22381.5899658
 20
58.9873332207
 10
-22466.8689491
 20
69.0848872924
 10
-22552.147925
 20
79.1825051971
 10
-22637.4268938
 20
89.2801838556
 10
-22722.7058558
 20
99.3779203826
 10
-22807.9848114
 20
109.475712072
 10
-22893.2637609
 20
119.573556381
 10
-22978.5427045
 20
129.671450923
 10
-23063.8216425
 20
139.769393451
 10
-23149.1005751
 20
149.867381849
 10
-23234.3795026
 20
159.965414124
 10
-23319.6584252
 20
170.063488396
 10
-23404.9373432
 20
180.161602889
 10
-23490.2162566
 20
190.259755929
 10
-23575.4951657
 20
200.357945928
 10
-23660.7740707
 20
210.456171389
 10
-23746.0529717
 20
220.55443089
 10
-23831.3318689
 20
230.652723086
 10
-23916.6107625
 20
240.751046702
 10
-24001.8896525
 20
250.849400527
 10
-24087.1685391
 20
260.947783412
 10
-24172.4474225
 20
271.046194265
 10
-24257.7263027
 20
281.144632047
 10
-24343.0051799
 20
291.243095771
 10
-24428.2840541
 20
301.341584498
  0
LWPOLYLINE
  5
20d
330
1F
100
AcDbEntity
  8
input_beam_width
100
AcDbPolyline
 90
18
 70
0
43
0.0
 10
-24459.7155968
 20
279.753281564
 10
-24518.2047158
 20
286.311195516
 10
-24576.6938361
 20
292.869098597
 10
-24635.1829575
 20
299.426991128
 10
-24693.6720801
 20
305.984873419
 10
-24752.1612039
 20
312.542745765
 10
-24810.6503288
 20
319.100608453
 10
-24869.1394547
 20
325.658461757
 10
-24927.6285817
 20
332.216305942
 10
-24986.1177097
 20
338.774141262
 10
-25044.6068387
 20
345.331967963
 10
-25103.0959686
 20
351.889786281
 10
-25161.5850995
 20
358.447596444
 10
-25220.0742313
 20
365.00539867
 10
-25278.563364
 20
371.563193173
 10
-25337.0524975
 20
378.120980156
 10
-25395.5416318
 20
384.678759817
 10
-25454.030767
 20
391.236532346
  0
LWPOLYLINE
  5
20e
330
1F
100
AcDbEntity
  8
input_beam_width
100
AcDbPolyline
 90
18
 70
0
43
0.0
 10
-24457.9959881
 20
304.370425146
 10
-24516.393214
 20
311.169584707
 10
-24574.7904387
 20
317.96875511
 10
-24633.1876621
 20
324.767936035
 10
-24691.5848844
 20
331.567127174
 10
-24749.9821056
 20
338.366328232
 10
-24808.3793256
 20
345.165538923
 10
-24866.7765446
 20
351.964758974
 10
-24925.1737626
 20
358.763988122
 10
-24983.5709795
 20
365.563226113
 10
-25041.9681955
 20
372.362472702
 10
-25100.3654105
 20
379.161727654
 10
-25158.7626246
 20
385.960990743
 10
-25217.1598377
 20
392.760261749
 10
-25275.55705
 20
399.559540461
 10
-25333.9542615
 20
406.358826676
 10
-25392.3514721
 20
413.158120197
 10
-25450.7486818
 20
419.957420835
  0
LWPOLYLINE
  5
20f
330
1F
100
AcDbEntity
  8
input_beam_width
100
AcDbPolyline
 90
10
 70
0
43
0.0
 10
-19562.5480938
 20
238.563859261
 10
-19551.3918485
 20
238.595345399
 10
-19540.2356032
 20
238.626831739
 10
-19529.0793579
 20
238.658318282
 10
-19517.9231126
 20
238.689805027
 10
-19506.7668673
 20
238.721291974
 10
-19495.6106221
 20
238.752779123
 10
-19484.4543768
 20
238.784266474
 10
-19473.2981315
 20
238.815754028
 10
-19462.1418862
 20
238.847241784
  0
LWPOLYLINE
  5
210
330
1F
100
AcDbEntity
  8
input_beam_width
100
AcDbPolyline
 90
10
 70
0
43
0.0
 10
-19561.6318967
 20
214.30227725
 10
-19550.5697988
 20
214.333862392
 10
-19539.5077009
 20
214.365447336
 10
-19528.445603
 20
214.397032081
 10
-19517.3835051
 20
214.428616627
 10
-19506.3214072
 20
214.460200974
 10
-19495.2593093
 20
214.491785123
 10
-19484.1972114
 20
214.523369072
 10
-19473.1351135
 20
214.554952823
 10
-19462.0730156
 20
214.586536375
  0
LWPOLYLINE
  5
211
330
1F
100
AcDbEntity
  8
input_beam_width
100
AcDbPolyline
 90
10
 70
0
43
0.0
 10
-21413.5417745
 20
-53.4460170919
 10
-21302.5345879
 20
-57.9371929986
 10
-21191.5273928
 20
-62.4281574478
 10
-21080.520189
 20
-66.9189080255
 10
-20969.5129766
 20
-71.4094423007
 10
-20858.5057554
 20
-75.899757826
 10
-20747.4985253
 20
-80.3898521373
 10
-20636.4912862
 20
-84.879722755
 10
-20525.484038
 20
-89.3693671841
 10
-20414.4767805
 20
-93.8587829151
  0
LWPOLYLINE
  5
212
330
1F
100
AcDbEntity
  8
input_beam_width
100
AcDbPolyline
 90
10
 70
0
43
0.0
 10
-21414.3490992
 20
-67.6475129854
 10
-21303.3135424
 20
-72.0858499581
 10
-21192.2779941
 20
-76.5243984837
 10
-21081.2424545
 20
-80.9631609778
 10
-20970.2069235
 20
-85.402139873
 10
-20859.1714014
 20
-89.8413376186
 10
-20748.1358881
 20
-94.2807566802
 10
-20637.1003838
 20
-98.7203995393
 10
-20526.0648887
 20
-103.160268693
 10
-20415.0294027
 20
-107.600366651
  0
LWPOLYLINE
  5
213
330
1F
100
AcDbEntity
  8
input_beam_width
100
AcDbPolyline
 90
10
 70
0
43
0.0
 10
-24428.2840903
 20
301.341032993
 10
-23887.6468077
 20
294.361881458
 10
-23347.0095127
 20
287.383697096
 10
-22806.3722051
 20
280.406484735
 10
-22265.734885
 20
273.430249002
 10
-21725.0975523
 20
266.454994317
 10
-21184.4602069
 20
259.48072489
 10
-20643.8228487
 20
252.507444714
 10
-20103.1854778
 20
245.535157561
 10
-19562.5480941
 20
238.563866978
  0
LWPOLYLINE
  5
214
330
1F
100
AcDbEntity
  8
input_beam_width
100
AcDbPolyline
 90
10
 70
0
43
0.0
 10
-24429.8693983
 20
276.798559429
 10
-23888.95407
 20
269.858443802
 10
-23348.0387541
 20
262.917360019
 10
-22807.1234508
 20
255.975303242
 10
-22266.2081601
 20
249.032268839
 10
-21725.292882
 20
242.088252381
 10
-21184.3776166
 20
235.143249653
 10
-20643.4623639
 20
228.197256655
 10
-20102.547124
 20
221.25026961
 10
-19561.631897
 20
214.302284966
  0
LWPOLYLINE
  5
215
330
1F
100
AcDbEntity
  8
input_beam_width
100
AcDbPolyline
 90
10
 70
0
43
0.0
 10
-29796.2890101
 20
69.8475416323
 10
-29574.1778544
 20
77.0234488289
 10
-29352.0667298
 20
84.2003126758
 10
-29129.9556361
 20
91.3781367983
 10
-28907.8445737
 20
98.5569244306
 10
-28685.7335425
 20
105.736678409
 10
-28463.6225427
 20
112.917401166
 10
-28241.5115742
 20
120.099094726
 10
-28019.4006372
 20
127.281760697
 10
-27797.2897317
 20
134.465400274
  0
LWPOLYLINE
  5
216
330
1F
100
AcDbEntity
  8
input_beam_width
100
AcDbPolyline
 90
10
 70
0
43
0.0
 10
-29784.2733518
 20
56.6094402132
 10
-29562.1724059
 20
63.8040311269
 10
-29340.0714291
 20
70.9976652747
 10
-29117.9704213
 20
78.1903390519
 10
-28895.8693822
 20
85.3820492453
 10
-28673.7683119
 20
92.5727930396
 10
-28451.6672103
 20
99.7625680239
 10
-28229.5660772
 20
106.951372196
 10
-28007.4649127
 20
114.139203968
 10
-27785.3637167
 20
121.326062168
  0
LWPOLYLINE
  5
217
330
1F
100
AcDbEntity
  8
input_beam_width
100
AcDbPolyline
 90
10
 70
0
43
0.0
 10
-27765.4135998
 20
143.355742946
 10
-27708.4489012
 20
143.355344392
 10
-27651.4842026
 20
143.355019568
 10
-27594.519504
 20
143.354768481
 10
-27537.5548053
 20
143.354591137
 10
-27480.5901067
 20
143.354487538
 10
-27423.6254081
 20
143.354457684
 10
-27366.6607095
 20
143.354501573
 10
-27309.6960109
 20
143.354619198
 10
-27252.7313123
 20
143.354810554
  0
LWPOLYLINE
  5
218
330
1F
100
AcDbEntity
  8
input_beam_width
100
AcDbPolyline
 90
10
 70
0
43
0.0
 10
-27752.6353811
 20
130.45592777
 10
-27698.5102841
 20
130.456095678
 10
-27644.385187
 20
130.456197023
 10
-27590.26009
 20
130.456231797
 10
-27536.1349929
 20
130.456199997
 10
-27482.0098958
 20
130.456101622
 10
-27427.8847988
 20
130.45593667
 10
-27373.7597017
 20
130.455705144
 10
-27319.6346047
 20
130.455407048
 10
-27265.5095076
 20
130.455042388
  0
LWPOLYLINE
  5
219
330
1F
100
AcDbEntity
  8
input_beam_width
100
AcDbPolyline
 90
10
 70
0
43
0.0
 10
-27797.2897124
 20
134.465378952
 10
-27793.7532008
 20
135.458525873
 10
-27790.2166892
 20
136.45167287
 10
-27786.6801776
 20
137.444819942
 10
-27783.1436661
 20
138.43796709
 10
-27779.6071546
 20
139.431114312
 10
-27776.0706431
 20
140.424261611
 10
-27772.5341316
 20
141.417408984
 10
-27768.9976201
 20
142.410556433
 10
-27765.4611087
 20
143.403703957
  0
LWPOLYLINE
  5
21a
330
1F
100
AcDbEntity
  8
input_beam_width
100
AcDbPolyline
 90
10
 70
0
43
0.0
 10
-27785.3636978
 20
121.326041404
 10
-27781.7324997
 20
122.345805216
 10
-27778.1013016
 20
123.365568948
 10
-27774.4701034
 20
124.385332601
 10
-27770.8389052
 20
125.405096175
 10
-27767.207707
 20
126.424859669
 10
-27763.5765087
 20
127.444623083
 10
-27759.9453105
 20
128.464386419
 10
-27756.3141122
 20
129.484149674
 10
-27752.6829139
 20
130.503912851
  0
LWPOLYLINE
  5
21b
330
1F
100
AcDbEntity
  8
input_beam_width
100
AcDbPolyline
 90
10
 70
0
43
0.0
 10
-24429.8693855
 20
276.798759906
 10
-24433.1856359
 20
277.126972947
 10
-24436.5018863
 20
277.45518597
 10
-24439.8181367
 20
277.783398976
 10
-24443.1343871
 20
278.111611965
 10
-24446.4506375
 20
278.439824936
 10
-24449.7668878
 20
278.76803789
 10
-24453.0831382
 20
279.096250828
 10
-24456.3993886
 20
279.424463748
 10
-24459.715639
 20
279.752676651
  0
LWPOLYLINE
  5
21c
330
1F
100
AcDbEntity
  8
input_beam_width
100
AcDbPolyline
 90
10
 70
0
43
0.0
 10
-24428.2840781
 20
301.341217981
 10
-24431.5854062
 20
301.677729255
 10
-24434.8867342
 20
302.014240547
 10
-24438.1880622
 20
302.350751855
 10
-24441.4893903
 20
302.687263181
 10
-24444.7907183
 20
303.023774523
 10
-24448.0920463
 20
303.360285883
 10
-24451.3933743
 20
303.69679726
 10
-24454.6947023
 20
304.033308653
 10
-24457.9960304
 20
304.369820064
  0
ENDSEC
  0
SECTION
  2
OBJECTS
  0
DICTIONARY
  5
C
330
0
100
AcDbDictionary
281
     1
  3
ACAD_GROUP
350
D
  3
ACAD_LAYOUT
350
1A
  3
ACAD_MATERIAL
350
3B
  3
ACAD_MLEADERSTYLE
350
6E
  3
ACAD_MLINESTYLE
350
17
  3
ACAD_PLOTSETTINGS
350
19
  3
ACAD_PLOTSTYLENAME
350
E
  3
ACAD_TABLESTYLE
350
6D
  3
ACAD_VISUALSTYLE
350
2A
  0
SUN
  5
3F
330
29
100
AcDbSun
 90
        1
290
     0
 63
     7
421
 16777215
 40
1.0
291
     1
 91
  2455826
 92
 54000000
292
     0
 70
     2
 71
   256
280
     1
  0
DICTIONARY
  5
D
102
{ACAD_REACTORS
330
C
102
}
330
C
100
AcDbDictionary
281
     1
  0
DICTIONARY
  5
1A
102
{ACAD_REACTORS
330
C
102
}
330
C
100
AcDbDictionary
281
     1
  3
Layout1
350
1E
  3
Layout2
350
26
  3
Model
350
22
  0
DICTIONARY
  5
3B
102
{ACAD_REACTORS
330
C
102
}
330
C
100
AcDbDictionary
281
     1
  3
ByBlock
350
3D
  3
ByLayer
350
3C
  3
Global
350
3E
  0
DICTIONARY
  5
6E
102
{ACAD_REACTORS
330
C
102
}
330
C
100
AcDbDictionary
281
     1
  0
DICTIONARY
  5
17
102
{ACAD_REACTORS
330
C
102
}
330
C
100
AcDbDictionary
281
     1
  3
Standard
350
18
  0
DICTIONARY
  5
19
102
{ACAD_REACTORS
330
C
102
}
330
C
100
AcDbDictionary
281
     1
  0
ACDBDICTIONARYWDFLT
  5
E
102
{ACAD_REACTORS
330
C
102
}
330
C
100
AcDbDictionary
281
     1
  3
Normal
350
F
100
AcDbDictionaryWithDefault
340
F
  0
DICTIONARY
  5
6D
102
{ACAD_REACTORS
330
C
102
}
330
C
100
AcDbDictionary
281
     1
  0
DICTIONARY
  5
2A
102
{ACAD_REACTORS
330
C
102
}
330
C
100
AcDbDictionary
281
     1
  3
2dWireframe
350
2F
  3
3D Hidden
350
31
  3
3dWireframe
350
30
  3
Basic
350
32
  3
Brighten
350
36
  3
ColorChange
350
3A
  3
Conceptual
350
34
  3
Dim
350
35
  3
Facepattern
350
39
  3
Flat
350
2B
  3
FlatWithEdges
350
2C
  3
Gouraud
350
2D
  3
GouraudWithEdges
350
2E
  3
Linepattern
350
38
  3
Realistic
350
33
  3
Thicken
350
37
  0
LAYOUT
  5
1E
102
{ACAD_REACTORS
330
1A
102
}
330
1A
100
AcDbPlotSettings
  1

  2
none_device
  4

  6

 40
0.0
 41
0.0
 42
0.0
 43
0.0
 44
0.0
 45
0.0
 46
0.0
 47
0.0
 48
0.0
 49
0.0
140
0.0
141
0.0
142
1.0
143
1.0
 70
   688
 72
     0
 73
     0
 74
     5
  7

 75
    16
 76
     0
 77
     2
 78
   300
147
1.0
148
0.0
149
0.0
100
AcDbLayout
  1
Layout1
 70
     1
 71
     1
 10
0.0
 20
0.0
 11
420.0
 21
297.0
 12
0.0
 22
0.0
 32
0.0
 14
1.000000000000000E+20
 24
1.000000000000000E+20
 34
1.000000000000000E+20
 15
-1.000000000000000E+20
 25
-1.000000000000000E+20
 35
-1.000000000000000E+20
146
0.0
 13
0.0
 23
0.0
 33
0.0
 16
1.0
 26
0.0
 36
0.0
 17
0.0
 27
1.0
 37
0.0
 76
     0
330
1B
  0
LAYOUT
  5
26
102
{ACAD_REACTORS
330
1A
102
}
330
1A
100
AcDbPlotSettings
  1

  2
none_device
  4

  6

 40
0.0
 41
0.0
 42
0.0
 43
0.0
 44
0.0
 45
0.0
 46
0.0
 47
0.0
 48
0.0
 49
0.0
140
0.0
141
0.0
142
1.0
143
1.0
 70
   688
 72
     0
 73
     0
 74
     5
  7

 75
    16
 76
     0
 77
     2
 78
   300
147
1.0
148
0.0
149
0.0
100
AcDbLayout
  1
Layout2
 70
     1
 71
     2
 10
0.0
 20
0.0
 11
0.0
 21
0.0
 12
0.0
 22
0.0
 32
0.0
 14
0.0
 24
0.0
 34
0.0
 15
0.0
 25
0.0
 35
0.0
146
0.0
 13
0.0
 23
0.0
 33
0.0
 16
1.0
 26
0.0
 36
0.0
 17
0.0
 27
1.0
 37
0.0
 76
     0
330
23
  0
LAYOUT
  5
22
102
{ACAD_REACTORS
330
1A
102
}
330
1A
100
AcDbPlotSettings
  1

  2
none_device
  4

  6

 40
0.0
 41
0.0
 42
0.0
 43
0.0
 44
0.0
 45
0.0
 46
0.0
 47
0.0
 48
0.0
 49
0.0
140
0.0
141
0.0
142
1.0
143
1.0
 70
  1712
 72
     0
 73
     0
 74
     0
  7

 75
     0
 76
     0
 77
     2
 78
   300
147
1.0
148
0.0
149
0.0
100
AcDbLayout
  1
Model
 70
     1
 71
     0
 10
0.0
 20
0.0
 11
420.0
 21
297.0
 12
0.0
 22
0.0
 32
0.0
 14
1.0
 24
0.0
 34
0.0
 15
73.0
 25
41.0
 35
0.0
146
0.0
 13
0.0
 23
0.0
 33
0.0
 16
1.0
 26
0.0
 36
0.0
 17
0.0
 27
1.0
 37
0.0
 76
     0
330
1F
331
29
  0
MATERIAL
  5
3D
102
{ACAD_REACTORS
330
3B
102
}
330
3B
100
AcDbMaterial
  1
ByBlock
 72
     1
 94
      127
  0
MATERIAL
  5
3C
102
{ACAD_REACTORS
330
3B
102
}
330
3B
100
AcDbMaterial
  1
ByLayer
 72
     1
 94
      127
  0
MATERIAL
  5
3E
102
{ACAD_REACTORS
330
3B
102
}
330
3B
100
AcDbMaterial
  1
Global
 72
     1
 94
      127
  0
MLINESTYLE
  5
18
102
{ACAD_REACTORS
330
17
102
}
330
17
100
AcDbMlineStyle
  2
Standard
 70
     0
  3

 62
   256
 51
90.0
 52
90.0
 71
     2
 49
0.5
 62
   256
  6
BYLAYER
 49
-0.5
 62
   256
  6
BYLAYER
  0
ACDBPLACEHOLDER
  5
F
102
{ACAD_REACTORS
330
E
102
}
330
E
  0
VISUALSTYLE
  5
2F
102
{ACAD_REACTORS
330
2A
102
}
330
2A
100
AcDbVisualStyle
  2
2dWireframe
 70
     4
177
     2
291
     0
 71
     0
176
     1
 72
     2
176
     1
 73
     0
176
     1
 90
        0
176
     1
 40
-0.6
176
     1
 41
-30.0
176
     1
 62
     5
 63
     7
421
 16777215
176
     1
 74
     1
176
     1
 91
        4
176
     1
 64
     7
176
     1
 65
   257
176
     1
 75
     1
176
     1
175
     1
176
     1
 42
1.0
176
     1
 92
        0
176
     1
 66
   257
176
     1
 43
1.0
176
     1
 76
     1
176
     1
 77
     6
176
     1
 78
     2
176
     1
 67
     7
176
     1
 79
     5
176
     1
170
     0
176
     1
171
     0
176
     1
290
     0
176
     1
 93
        1
176
     1
 44
0.0
176
     1
173
     0
176
     1
  0
VISUALSTYLE
  5
31
102
{ACAD_REACTORS
330
2A
102
}
330
2A
100
AcDbVisualStyle
  2
3D Hidden
 70
     6
177
     2
291
     0
 71
     1
176
     1
 72
     2
176
     1
 73
     2
176
     1
 90
        0
176
     1
 40
-0.6
176
     1
 41
-30.0
176
     1
 62
     5
 63
     7
421
 16777215
176
     1
 74
     2
176
     1
 91
        2
176
     1
 64
     7
176
     1
 65
   257
176
     1
 75
     2
176
     1
175
     1
176
     1
 42
40.0
176
     1
 92
        0
176
     1
 66
   257
176
     1
 43
1.0
176
     1
 76
     1
176
     1
 77
     6
176
     1
 78
     2
176
     1
 67
     7
176
     1
 79
     3
176
     1
170
     0
176
     1
171
     0
176
     1
290
     0
176
     1
 93
        1
176
     1
 44
0.0
176
     1
173
     0
176
     1
  0
VISUALSTYLE
  5
30
102
{ACAD_REACTORS
330
2A
102
}
330
2A
100
AcDbVisualStyle
  2
3dWireframe
 70
     5
177
     2
291
     0
 71
     0
176
     1
 72
     2
176
     1
 73
     0
176
     1
 90
        0
176
     1
 40
-0.6
176
     1
 41
-30.0
176
     1
 62
     5
 63
     7
421
 16777215
176
     1
 74
     1
176
     1
 91
        4
176
     1
 64
     7
176
     1
 65
   257
176
     1
 75
     1
176
     1
175
     1
176
     1
 42
1.0
176
     1
 92
        0
176
     1
 66
   257
176
     1
 43
1.0
176
     1
 76
     1
176
     1
 77
     6
176
     1
 78
     2
176
     1
 67
     7
176
     1
 79
     5
176
     1
170
     0
176
     1
171
     0
176
     1
290
     0
176
     1
 93
        1
176
     1
 44
0.0
176
     1
173
     0
176
     1
  0
VISUALSTYLE
  5
32
102
{ACAD_REACTORS
330
2A
102
}
330
2A
100
AcDbVisualStyle
  2
Basic
 70
     7
177
     2
291
     1
 71
     1
176
     1
 72
     0
176
     1
 73
     1
176
     1
 90
        0
176
     1
 40
-0.6
176
     1
 41
-30.0
176
     1
 62
     5
 63
     7
421
 16777215
176
     1
 74
     0
176
     1
 91
        4
176
     1
 64
     7
176
     1
 65
   257
176
     1
 75
     1
176
     1
175
     1
176
     1
 42
1.0
176
     1
 92
        8
176
     1
 66
     7
176
     1
 43
1.0
176
     1
 76
     1
176
     1
 77
     6
176
     1
 78
     2
176
     1
 67
     7
176
     1
 79
     5
176
     1
170
     0
176
     1
171
     0
176
     1
290
     0
176
     1
 93
        1
176
     1
 44
0.0
176
     1
173
     0
176
     1
  0
VISUALSTYLE
  5
36
102
{ACAD_REACTORS
330
2A
102
}
330
2A
100
AcDbVisualStyle
  2
Brighten
 70
    12
177
     2
291
     1
 71
     2
176
     1
 72
     2
176
     1
 73
     0
176
     1
 90
        0
176
     1
 40
-0.6
176
     1
 41
-30.0
176
     1
 62
     5
 63
     7
421
 16777215
176
     1
 74
     1
176
     1
 91
        4
176
     1
 64
     7
176
     1
 65
   257
176
     1
 75
     1
176
     1
175
     1
176
     1
 42
1.0
176
     1
 92
        8
176
     1
 66
     7
176
     1
 43
1.0
176
     1
 76
     1
176
     1
 77
     6
176
     1
 78
     2
176
     1
 67
     7
176
     1
 79
     5
176
     1
170
     0
176
     1
171
     0
176
     1
290
     0
176
     1
 93
        1
176
     1
 44
50.0
176
     1
173
     0
176
     1
  0
VISUALSTYLE
  5
3A
102
{ACAD_REACTORS
330
2A
102
}
330
2A
100
AcDbVisualStyle
  2
ColorChange
 70
    16
177
     2
291
     1
 71
     2
176
     1
 72
     2
176
     1
 73
     3
176
     1
 90
        0
176
     1
 40
-0.6
176
     1
 41
-30.0
176
     1
 62
     5
 63
     8
421
  8421504
176
     1
 74
     1
176
     1
 91
        4
176
     1
 64
     7
176
     1
 65
   257
176
     1
 75
     1
176
     1
175
     1
176
     1
 42
1.0
176
     1
 92
        8
176
     1
 66
     8
424
  8421504
176
     1
 43
1.0
176
     1
 76
     1
176
     1
 77
     6
176
     1
 78
     2
176
     1
 67
     7
176
     1
 79
     5
176
     1
170
     0
176
     1
171
     0
176
     1
290
     0
176
     1
 93
        1
176
     1
 44
0.0
176
     1
173
     0
176
     1
  0
VISUALSTYLE
  5
34
102
{ACAD_REACTORS
330
2A
102
}
330
2A
100
AcDbVisualStyle
  2
Conceptual
 70
     9
177
     2
291
     0
 71
     3
176
     1
 72
     2
176
     1
 73
     0
176
     1
 90
        0
176
     1
 40
-0.6
176
     1
 41
-30.0
176
     1
 62
     5
 63
     7
421
 16777215
176
     1
 74
     2
176
     1
 91
        2
176
     1
 64
     7
176
     1
 65
   257
176
     1
 75
     1
176
     1
175
     1
176
     1
 42
40.0
176
     1
 92
        8
176
     1
 66
     7
176
     1
 43
1.0
176
     1
 76
     1
176
     1
 77
     6
176
     1
 78
     2
176
     1
 67
     7
176
     1
 79
     3
176
     1
170
     0
176
     1
171
     0
176
     1
290
     0
176
     1
 93
        1
176
     1
 44
0.0
176
     1
173
     0
176
     1
  0
VISUALSTYLE
  5
35
102
{ACAD_REACTORS
330
2A
102
}
330
2A
100
AcDbVisualStyle
  2
Dim
 70
    11
177
     2
291
     1
 71
     2
176
     1
 72
     2
176
     1
 73
     0
176
     1
 90
        0
176
     1
 40
-0.6
176
     1
 41
-30.0
176
     1
 62
     5
 63
     7
421
 16777215
176
     1
 74
     1
176
     1
 91
        4
176
     1
 64
     7
176
     1
 65
   257
176
     1
 75
     1
176
     1
175
     1
176
     1
 42
1.0
176
     1
 92
        8
176
     1
 66
     7
176
     1
 43
1.0
176
     1
 76
     1
176
     1
 77
     6
176
     1
 78
     2
176
     1
 67
     7
176
     1
 79
     5
176
     1
170
     0
176
     1
171
     0
176
     1
290
     0
176
     1
 93
        1
176
     1
 44
-50.0
176
     1
173
     0
176
     1
  0
VISUALSTYLE
  5
39
102
{ACAD_REACTORS
330
2A
102
}
330
2A
100
AcDbVisualStyle
  2
Facepattern
 70
    15
177
     2
291
     1
 71
     2
176
     1
 72
     2
176
     1
 73
     0
176
     1
 90
        0
176
     1
 40
-0.6
176
     1
 41
-30.0
176
     1
 62
     5
 63
     7
421
 16777215
176
     1
 74
     1
176
     1
 91
        4
176
     1
 64
     7
176
     1
 65
   257
176
     1
 75
     1
176
     1
175
     1
176
     1
 42
1.0
176
     1
 92
        8
176
     1
 66
     7
176
     1
 43
1.0
176
     1
 76
     1
176
     1
 77
     6
176
     1
 78
     2
176
     1
 67
     7
176
     1
 79
     5
176
     1
170
     0
176
     1
171
     0
176
     1
290
     0
176
     1
 93
        1
176
     1
 44
0.0
176
     1
173
     0
176
     1
  0
VISUALSTYLE
  5
2B
102
{ACAD_REACTORS
330
2A
102
}
330
2A
100
AcDbVisualStyle
  2
Flat
 70
     0
177
     2
291
     1
 71
     2
176
     1
 72
     1
176
     1
 73
     1
176
     1
 90
        2
176
     1
 40
-0.6
176
     1
 41
30.0
176
     1
 62
     5
 63
     7
421
 16777215
176
     1
 74
     0
176
     1
 91
        4
176
     1
 64
     7
176
     1
 65
   257
176
     1
 75
     1
176
     1
175
     1
176
     1
 42
1.0
176
     1
 92
        8
176
     1
 66
     7
176
     1
 43
1.0
176
     1
 76
     1
176
     1
 77
     6
176
     1
 78
     2
176
     1
 67
     7
176
     1
 79
     5
176
     1
170
     0
176
     1
171
     0
176
     1
290
     0
176
     1
 93
       13
176
     1
 44
0.0
176
     1
173
     0
176
     1
  0
VISUALSTYLE
  5
2C
102
{ACAD_REACTORS
330
2A
102
}
330
2A
100
AcDbVisualStyle
  2
FlatWithEdges
 70
     1
177
     2
291
     1
 71
     2
176
     1
 72
     1
176
     1
 73
     1
176
     1
 90
        2
176
     1
 40
-0.6
176
     1
 41
30.0
176
     1
 62
     5
 63
     7
421
 16777215
176
     1
 74
     1
176
     1
 91
        4
176
     1
 64
     7
176
     1
 65
   257
176
     1
 75
     1
176
     1
175
     1
176
     1
 42
1.0
176
     1
 92
        0
176
     1
 66
   257
176
     1
 43
1.0
176
     1
 76
     1
176
     1
 77
     6
176
     1
 78
     2
176
     1
 67
     7
176
     1
 79
     5
176
     1
170
     0
176
     1
171
     0
176
     1
290
     0
176
     1
 93
       13
176
     1
 44
0.0
176
     1
173
     0
176
     1
  0
VISUALSTYLE
  5
2D
102
{ACAD_REACTORS
330
2A
102
}
330
2A
100
AcDbVisualStyle
  2
Gouraud
 70
     2
177
     2
291
     1
 71
     2
176
     1
 72
     2
176
     1
 73
     1
176
     1
 90
        2
176
     1
 40
-0.6
176
     1
 41
30.0
176
     1
 62
     5
 63
     7
421
 16777215
176
     1
 74
     0
176
     1
 91
        4
176
     1
 64
     7
176
     1
 65
   257
176
     1
 75
     1
176
     1
175
     1
176
     1
 42
1.0
176
     1
 92
        0
176
     1
 66
     7
176
     1
 43
1.0
176
     1
 76
     1
176
     1
 77
     6
176
     1
 78
     2
176
     1
 67
     7
176
     1
 79
     5
176
     1
170
     0
176
     1
171
     0
176
     1
290
     0
176
     1
 93
       13
176
     1
 44
0.0
176
     1
173
     0
176
     1
  0
VISUALSTYLE
  5
2E
102
{ACAD_REACTORS
330
2A
102
}
330
2A
100
AcDbVisualStyle
  2
GouraudWithEdges
 70
     3
177
     2
291
     1
 71
     2
176
     1
 72
     2
176
     1
 73
     1
176
     1
 90
        2
176
     1
 40
-0.6
176
     1
 41
30.0
176
     1
 62
     5
 63
     7
421
 16777215
176
     1
 74
     1
176
     1
 91
        4
176
     1
 64
     7
176
     1
 65
   257
176
     1
 75
     1
176
     1
175
     1
176
     1
 42
1.0
176
     1
 92
        0
176
     1
 66
   257
176
     1
 43
1.0
176
     1
 76
     1
176
     1
 77
     6
176
     1
 78
     2
176
     1
 67
     7
176
     1
 79
     5
176
     1
170
     0
176
     1
171
     0
176
     1
290
     0
176
     1
 93
       13
176
     1
 44
0.0
176
     1
173
     0
176
     1
  0
VISUALSTYLE
  5
38
102
{ACAD_REACTORS
330
2A
102
}
330
2A
100
AcDbVisualStyle
  2
Linepattern
 70
    14
177
     2
291
     1
 71
     2
176
     1
 72
     2
176
     1
 73
     0
176
     1
 90
        0
176
     1
 40
-0.6
176
     1
 41
-30.0
176
     1
 62
     5
 63
     7
421
 16777215
176
     1
 74
     1
176
     1
 91
        4
176
     1
 64
     7
176
     1
 65
   257
176
     1
 75
     7
176
     1
175
     7
176
     1
 42
1.0
176
     1
 92
        8
176
     1
 66
     7
176
     1
 43
1.0
176
     1
 76
     1
176
     1
 77
     6
176
     1
 78
     2
176
     1
 67
     7
176
     1
 79
     5
176
     1
170
     0
176
     1
171
     0
176
     1
290
     0
176
     1
 93
        1
176
     1
 44
0.0
176
     1
173
     0
176
     1
  0
VISUALSTYLE
  5
33
102
{ACAD_REACTORS
330
2A
102
}
330
2A
100
AcDbVisualStyle
  2
Realistic
 70
     8
177
     2
291
     0
 71
     2
176
     1
 72
     2
176
     1
 73
     0
176
     1
 90
        0
176
     1
 40
-0.6
176
     1
 41
-30.0
176
     1
 62
     5
 63
     7
421
 16777215
176
     1
 74
     1
176
     1
 91
        0
176
     1
 64
     7
176
     1
 65
   257
176
     1
 75
     1
176
     1
175
     1
176
     1
 42
1.0
176
     1
 92
        8
176
     1
 66
     8
424
  7895160
176
     1
 43
1.0
176
     1
 76
     1
176
     1
 77
     6
176
     1
 78
     2
176
     1
 67
     7
176
     1
 79
     5
176
     1
170
     0
176
     1
171
     0
176
     1
290
     0
176
     1
 93
       13
176
     1
 44
0.0
176
     1
173
     0
176
     1
  0
VISUALSTYLE
  5
37
102
{ACAD_REACTORS
330
2A
102
}
330
2A
100
AcDbVisualStyle
  2
Thicken
 70
    13
177
     2
291
     1
 71
     2
176
     1
 72
     2
176
     1
 73
     0
176
     1
 90
        0
176
     1
 40
-0.6
176
     1
 41
-30.0
176
     1
 62
     5
 63
     7
421
 16777215
176
     1
 74
     1
176
     1
 91
        4
176
     1
 64
     7
176
     1
 65
   257
176
     1
 75
     1
176
     1
175
     1
176
     1
 42
1.0
176
     1
 92
       12
176
     1
 66
     7
176
     1
 43
1.0
176
     1
 76
     1
176
     1
 77
     6
176
     1
 78
     2
176
     1
 67
     7
176
     1
 79
     5
176
     1
170
     0
176
     1
171
     0
176
     1
290
     0
176
     1
 93
        1
176
     1
 44
0.0
176
     1
173
     0
176
     1
  0
ENDSEC
0
EOF
