  0
SECTION
  2
HEADER
  9
$ACADVER
  1
AC1024
  9
$ACADMAINTVER
 70
     6
  9
$DWGCODEPAGE
  3
ANSI_1252
  9
$INSBASE
 10
0.0
 20
0.0
 30
0.0
  9
$EXTMIN
 10
-20562.4631413
 20
-20226.4355913
 30
0.0
  9
$EXTMAX
 10
3026657.58962
 20
3023372.45251
 30
0.0
  9
$LIMMIN
 10
-20562.4631413
 20
-20226.4355913
  9
$LIMMAX
 10
3026657.58962
 20
3023372.45251
  9
$ORTHOMODE
 70
     0
  9
$REGENMODE
 70
     1
  9
$FILLMODE
 70
     1
  9
$QTEXTMODE
 70
     0
  9
$MIRRTEXT
 70
     1
  9
$LTSCALE
 40
1.0
  9
$ATTMODE
 70
     1
  9
$TEXTSIZE
 40
2.5
  9
$TRACEWID
 40
1.0
  9
$TEXTSTYLE
  7
Standard
  9
$CLAYER
  8
Outline
  9
$CELTYPE
  6
ByLayer
  9
$CECOLOR
 62
   256
  9
$CELTSCALE
 40
1.0
  9
$DISPSILH
 70
     0
  9
$DIMSCALE
 40
1.0
  9
$DIMASZ
 40
2.5
  9
$DIMEXO
 40
0.625
  9
$DIMDLI
 40
3.75
  9
$DIMRND
 40
0.0
  9
$DIMDLE
 40
0.0
  9
$DIMEXE
 40
1.25
  9
$DIMTP
 40
0.0
  9
$DIMTM
 40
0.0
  9
$DIMTXT
 40
2.5
  9
$DIMCEN
 40
2.5
  9
$DIMTSZ
 40
0.0
  9
$DIMTOL
 70
     0
  9
$DIMLIM
 70
     0
  9
$DIMTIH
 70
     0
  9
$DIMTOH
 70
     0
  9
$DIMSE1
 70
     0
  9
$DIMSE2
 70
     0
  9
$DIMTAD
 70
     1
  9
$DIMZIN
 70
     8
  9
$DIMBLK
  1

  9
$DIMASO
 70
     1
  9
$DIMSHO
 70
     1
  9
$DIMPOST
  1

  9
$DIMAPOST
  1

  9
$DIMALT
 70
     0
  9
$DIMALTD
 70
     3
  9
$DIMALTF
 40
0.03937007874016
  9
$DIMLFAC
 40
1.0
  9
$DIMTOFL
 70
     1
  9
$DIMTVP
 40
0.0
  9
$DIMTIX
 70
     0
  9
$DIMSOXD
 70
     0
  9
$DIMSAH
 70
     0
  9
$DIMBLK1
  1

  9
$DIMBLK2
  1

  9
$DIMSTYLE
  2
ISO-25
  9
$DIMCLRD
 70
     0
  9
$DIMCLRE
 70
     0
  9
$DIMCLRT
 70
     0
  9
$DIMTFAC
 40
1.0
  9
$DIMGAP
 40
0.625
  9
$DIMJUST
 70
     0
  9
$DIMSD1
 70
     0
  9
$DIMSD2
 70
     0
  9
$DIMTOLJ
 70
     0
  9
$DIMTZIN
 70
     8
  9
$DIMALTZ
 70
     0
  9
$DIMALTTZ
 70
     0
  9
$DIMUPT
 70
     0
  9
$DIMDEC
 70
     2
  9
$DIMTDEC
 70
     2
  9
$DIMALTU
 70
     2
  9
$DIMALTTD
 70
     3
  9
$DIMTXSTY
  7
Standard
  9
$DIMAUNIT
 70
     0
  9
$DIMADEC
 70
     0
  9
$DIMALTRND
 40
0.0
  9
$DIMAZIN
 70
     0
  9
$DIMDSEP
 70
    44
  9
$DIMATFIT
 70
     3
  9
$DIMFRAC
 70
     0
  9
$DIMLDRBLK
  1

  9
$DIMLUNIT
 70
     2
  9
$DIMLWD
 70
    -2
  9
$DIMLWE
 70
    -2
  9
$DIMTMOVE
 70
     0
  9
$DIMFXL
 40
1.0
  9
$DIMFXLON
 70
     0
  9
$DIMJOGANG
 40
0.7853981633974483
  9
$DIMTFILL
 70
     0
  9
$DIMTFILLCLR
 70
     0
  9
$DIMARCSYM
 70
     0
  9
$DIMLTYPE
  6

  9
$DIMLTEX1
  6

  9
$DIMLTEX2
  6

  9
$DIMTXTDIRECTION
 70
     0
  9
$LUNITS
 70
     2
  9
$LUPREC
 70
     4
  9
$SKETCHINC
 40
1.0
  9
$FILLETRAD
 40
10.0
  9
$AUNITS
 70
     0
  9
$AUPREC
 70
     0
  9
$MENU
  1
.
  9
$ELEVATION
 40
0.0
  9
$PELEVATION
 40
0.0
  9
$THICKNESS
 40
0.0
  9
$LIMCHECK
 70
     0
  9
$CHAMFERA
 40
10.0
  9
$CHAMFERB
 40
10.0
  9
$CHAMFERC
 40
20.0
  9
$CHAMFERD
 40
0.0
  9
$SKPOLY
 70
     0
  9
$TDCREATE
 40
2456231.748506945
  9
$TDUCREATE
 40
2456231.373506945
  9
$TDUPDATE
 40
2456231.748506945
  9
$TDUUPDATE
 40
2456231.373506945
  9
$TDINDWG
 40
0.0000000116
  9
$TDUSRTIMER
 40
0.0000000116
  9
$USRTIMER
 70
     1
  9
$ANGBASE
 50
0.0
  9
$ANGDIR
 70
     0
  9
$PDMODE
 70
     0
  9
$PDSIZE
 40
0.0
  9
$PLINEWID
 40
0.0
  9
$SPLFRAME
 70
     0
  9
$SPLINETYPE
 70
     6
  9
$SPLINESEGS
 70
     8
  9
$HANDSEED
  5
6F
  9
$SURFTAB1
 70
     6
  9
$SURFTAB2
 70
     6
  9
$SURFTYPE
 70
     6
  9
$SURFU
 70
     6
  9
$SURFV
 70
     6
  9
$UCSBASE
  2

  9
$UCSNAME
  2

  9
$UCSORG
 10
0.0
 20
0.0
 30
0.0
  9
$UCSXDIR
 10
1.0
 20
0.0
 30
0.0
  9
$UCSYDIR
 10
0.0
 20
1.0
 30
0.0
  9
$UCSORTHOREF
  2

  9
$UCSORTHOVIEW
 70
     0
  9
$UCSORGTOP
 10
0.0
 20
0.0
 30
0.0
  9
$UCSORGBOTTOM
 10
0.0
 20
0.0
 30
0.0
  9
$UCSORGLEFT
 10
0.0
 20
0.0
 30
0.0
  9
$UCSORGRIGHT
 10
0.0
 20
0.0
 30
0.0
  9
$UCSORGFRONT
 10
0.0
 20
0.0
 30
0.0
  9
$UCSORGBACK
 10
0.0
 20
0.0
 30
0.0
  9
$PUCSBASE
  2

  9
$PUCSNAME
  2

  9
$PUCSORG
 10
0.0
 20
0.0
 30
0.0
  9
$PUCSXDIR
 10
1.0
 20
0.0
 30
0.0
  9
$PUCSYDIR
 10
0.0
 20
1.0
 30
0.0
  9
$PUCSORTHOREF
  2

  9
$PUCSORTHOVIEW
 70
     0
  9
$PUCSORGTOP
 10
0.0
 20
0.0
 30
0.0
  9
$PUCSORGBOTTOM
 10
0.0
 20
0.0
 30
0.0
  9
$PUCSORGLEFT
 10
0.0
 20
0.0
 30
0.0
  9
$PUCSORGRIGHT
 10
0.0
 20
0.0
 30
0.0
  9
$PUCSORGFRONT
 10
0.0
 20
0.0
 30
0.0
  9
$PUCSORGBACK
 10
0.0
 20
0.0
 30
0.0
  9
$USERI1
 70
     0
  9
$USERI2
 70
     0
  9
$USERI3
 70
     0
  9
$USERI4
 70
     0
  9
$USERI5
 70
     0
  9
$USERR1
 40
0.0
  9
$USERR2
 40
0.0
  9
$USERR3
 40
0.0
  9
$USERR4
 40
0.0
  9
$USERR5
 40
0.0
  9
$WORLDVIEW
 70
     1
  9
$SHADEDGE
 70
     3
  9
$SHADEDIF
 70
    70
  9
$TILEMODE
 70
     1
  9
$MAXACTVP
 70
    64
  9
$PINSBASE
 10
0.0
 20
0.0
 30
0.0
  9
$PLIMCHECK
 70
     0
  9
$PEXTMIN
 10
1.000000000000000E+20
 20
1.000000000000000E+20
 30
1.000000000000000E+20
  9
$PEXTMAX
 10
-1.000000000000000E+20
 20
-1.000000000000000E+20
 30
-1.000000000000000E+20
  9
$PLIMMIN
 10
0.0
 20
0.0
  9
$PLIMMAX
 10
420.0
 20
297.0
  9
$UNITMODE
 70
     0
  9
$VISRETAIN
 70
     1
  9
$PLINEGEN
 70
     0
  9
$PSLTSCALE
 70
     1
  9
$TREEDEPTH
 70
  3020
  9
$CMLSTYLE
  2
Standard
  9
$CMLJUST
 70
     0
  9
$CMLSCALE
 40
20.0
  9
$PROXYGRAPHICS
 70
     1
  9
$MEASUREMENT
 70
     1
  9
$CELWEIGHT
370
    -1
  9
$ENDCAPS
280
     0
  9
$JOINSTYLE
280
     0
  9
$LWDISPLAY
290
     0
  9
$INSUNITS
 70
     4
  9
$HYPERLINKBASE
  1

  9
$STYLESHEET
  1

  9
$XEDIT
290
     1
  9
$CEPSNTYPE
380
     0
  9
$PSTYLEMODE
290
     1
  9
$FINGERPRINTGUID
  2
{92905EEA-4798-D3AF-0738-BBE039DCC74E}
  9
$VERSIONGUID
  2
{FAEB1C32-E019-11D5-929B-00C0DF256EC4}
  9
$EXTNAMES
290
     1
  9
$PSVPSCALE
 40
0.0
  9
$OLESTARTUP
290
     0
  9
$SORTENTS
280
   127
  9
$INDEXCTL
280
     0
  9
$HIDETEXT
280
     1
  9
$XCLIPFRAME
280
     2
  9
$HALOGAP
280
     0
  9
$OBSCOLOR
 70
   257
  9
$OBSLTYPE
280
     0
  9
$INTERSECTIONDISPLAY
280
     0
  9
$INTERSECTIONCOLOR
 70
   257
  9
$DIMASSOC
280
     2
  9
$PROJECTNAME
  1

  9
$CAMERADISPLAY
290
     0
  9
$LENSLENGTH
 40
50.0
  9
$CAMERAHEIGHT
 40
0.0
  9
$STEPSPERSEC
 40
2.0
  9
$STEPSIZE
 40
6.0
  9
$3DDWFPREC
 40
2.0
  9
$PSOLWIDTH
 40
5.0
  9
$PSOLHEIGHT
 40
80.0
  9
$LOFTANG1
 40
1.570796326794897
  9
$LOFTANG2
 40
1.570796326794897
  9
$LOFTMAG1
 40
0.0
  9
$LOFTMAG2
 40
0.0
  9
$LOFTPARAM
 70
     7
  9
$LOFTNORMALS
280
     1
  9
$LATITUDE
 40
37.795
  9
$LONGITUDE
 40
-122.394
  9
$NORTHDIRECTION
 40
0.0
  9
$TIMEZONE
 70
 -8000
  9
$LIGHTGLYPHDISPLAY
280
     1
  9
$TILEMODELIGHTSYNCH
280
     1
  9
$CMATERIAL
347
3C
  9
$SOLIDHIST
280
     1
  9
$SHOWHIST
280
     1
  9
$DWFFRAME
280
     2
  9
$DGNFRAME
280
     2
  9
$REALWORLDSCALE
290
     1
  9
$INTERFERECOLOR
 62
   256
  9
$CSHADOW
280
     0
  9
$SHADOWPLANELOCATION
 40
0.0
  0
ENDSEC
  0
SECTION
  2
CLASSES
  0
CLASS
  1
ACDBDICTIONARYWDFLT
  2
AcDbDictionaryWithDefault
  3
ObjectDBX Classes
 90
        0
 91
        4
280
     0
281
     0
  0
CLASS
  1
VISUALSTYLE
  2
AcDbVisualStyle
  3
ObjectDBX Classes
 90
     4095
 91
        4
280
     0
281
     0
  0
CLASS
  1
MATERIAL
  2
AcDbMaterial
  3
ObjectDBX Classes
 90
     1153
 91
        4
280
     0
281
     0
  0
CLASS
  1
SUN
  2
AcDbSun
  3
SCENEOE
 90
     1024
 91
        4
280
     0
281
     0
  0
ENDSEC
  0
SECTION
  2
TABLES
  0
TABLE
  2
VPORT
  5
8
330
0
100
AcDbSymbolTable
 70
     1
  0
VPORT
  5
29
330
8
100
AcDbSymbolTableRecord
100
AcDbViewportTableRecord
  2
*Active
 70
     0
 10
0.0
 20
0.0
 11
1.0
 21
1.0
 12
360.5069142256372
 22
77.37740091485402
 13
0.0
 23
0.0
 14
10.0
 24
10.0
 15
10.0
 25
10.0
 16
0.0
 26
0.0
 36
1.0
 17
0.0
 27
0.0
 37
0.0
 40
643.00113180099
 41
2.116173120728929
 42
50.0
 43
0.0
 44
0.0
 50
0.0
 51
0.0
 71
     0
 72
   100
 73
     1
 74
     3
 75
     0
 76
     0
 77
     0
 78
     0
281
     0
 65
     1
110
0.0
120
0.0
130
0.0
111
1.0
121
0.0
131
0.0
112
0.0
122
1.0
132
0.0
 79
     0
146
0.0
 60
     3
 61
     5
292
     1
282
     1
141
0.0
142
0.0
 63
   250
361
3F
  0
ENDTAB
  0
TABLE
  2
LTYPE
  5
5
330
0
100
AcDbSymbolTable
 70
     7
  0
LTYPE
  5
14
330
5
100
AcDbSymbolTableRecord
100
AcDbLinetypeTableRecord
  2
ByBlock
 70
     0
  3

 72
    65
 73
     0
 40
0.0
  0
LTYPE
  5
15
330
5
100
AcDbSymbolTableRecord
100
AcDbLinetypeTableRecord
  2
ByLayer
 70
     0
  3

 72
    65
 73
     0
 40
0.0
  0
LTYPE
  5
16
330
5
100
AcDbSymbolTableRecord
100
AcDbLinetypeTableRecord
  2
Continuous
 70
     0
  3
Solid line
 72
    65
 73
     0
 40
0.0
  0
LTYPE
  5
40
330
5
100
AcDbSymbolTableRecord
100
AcDbLinetypeTableRecord
  2
DOT
 70
     0
  3
Dot . . . . . . . . . . . . . . . . . . . . . . . .
 72
    65
 73
     2
 40
2.032
 49
1.016
 74
     0
 49
-1.016
 74
     0
  0
LTYPE
  5
41
330
5
100
AcDbSymbolTableRecord
100
AcDbLinetypeTableRecord
  2
CENTER
 70
     0
  3
Center ____ _ ____ _ ____ _ ____ _ ____ _ ____
 72
    65
 73
     4
 40
13.208
 49
8.128
 74
     0
 49
-1.524
 74
     0
 49
2.032
 74
     0
 49
-1.524
 74
     0
  0
LTYPE
  5
42
330
5
100
AcDbSymbolTableRecord
100
AcDbLinetypeTableRecord
  2
HIDDEN2
 70
     0
  3
Hidden (.5x) _ _ _ _ _ _ _ _ _ _ _ _ _ _ _ _ _
 72
    65
 73
     2
 40
4.762499999999999
 49
3.175
 74
     0
 49
-1.5875
 74
     0
  0
LTYPE
  5
43
330
5
100
AcDbSymbolTableRecord
100
AcDbLinetypeTableRecord
  2
DASHED
 70
     0
  3
Dashed __ __ __ __ __ __ __ __ __ __ __ __ __ _
 72
    65
 73
     2
 40
9.652
 49
8.128
 74
     0
 49
-1.524
 74
     0
  0
LTYPE
  5
44
330
5
100
AcDbSymbolTableRecord
100
AcDbLinetypeTableRecord
  2
PHANTOM2
 70
     0
  3
Phantom (.5x) ___ _ _ ___ _ _ ___ _ _ ___ _ _
 72
    65
 73
     6
 40
14.732
 49
8.128
 74
     0
 49
-1.524
 74
     0
 49
1.016
 74
     0
 49
-1.524
 74
     0
 49
1.016
 74
     0
 49
-1.524
 74
     0
  0
LTYPE
  5
45
330
5
100
AcDbSymbolTableRecord
100
AcDbLinetypeTableRecord
  2
DASHDOT
 70
     0
  3
Dash dot __ . __ . __ . __ . __ . __ . __ . __
 72
    65
 73
     4
 40
11.176
 49
8.128
 74
     0
 49
-1.524
 74
     0
 49
0.0
 74
     0
 49
-1.524
 74
     0
  0
ENDTAB
  0
TABLE
  2
LAYER
  5
2
330
0
100
AcDbSymbolTable
 70
     7
  0
LAYER
  5
10
330
2
100
AcDbSymbolTableRecord
100
AcDbLayerTableRecord
  2
0
 70
     0
 62
     5
  6
Continuous
370
    -3
390
F
347
3E
  0
LAYER
  5
46
330
2
100
AcDbSymbolTableRecord
100
AcDbLayerTableRecord
  2
Default
 70
     0
 62
     255
  6
Continuous
370
    -3
390
F
347
3E
  0
LAYER
  5
78
330
2
100
AcDbSymbolTableRecord
100
AcDbLayerTableRecord
  2
Mirrors
 70
0
 62
255
  6
Continuous
370
    -3
390
F
347
3E
  0
LAYER
  5
b0
330
2
100
AcDbSymbolTableRecord
100
AcDbLayerTableRecord
  2
text
 70
0
 62
255
  6
Continuous
370
    -3
390
F
347
3E
  0
LAYER
  5
e3
330
2
100
AcDbSymbolTableRecord
100
AcDbLayerTableRecord
  2
main_beam
 70
0
 62
1
  6
Continuous
370
    -3
390
F
347
3E
  0
LAYER
  5
101
330
2
100
AcDbSymbolTableRecord
100
AcDbLayerTableRecord
  2
aux_beam
 70
0
 62
3
  6
Continuous
370
    -3
390
F
347
3E
  0
LAYER
  5
10c
330
2
100
AcDbSymbolTableRecord
100
AcDbLayerTableRecord
  2
pox_beam
 70
0
 62
5
  6
Continuous
370
    -3
390
F
347
3E
  0
LAYER
  5
10d
330
2
100
AcDbSymbolTableRecord
100
AcDbLayerTableRecord
  2
poy_beam
 70
0
 62
5
  6
Continuous
370
    -3
390
F
347
3E
  0
LAYER
  5
10e
330
2
100
AcDbSymbolTableRecord
100
AcDbLayerTableRecord
  2
main_beam_width
 70
0
 62
6
  6
Continuous
370
    -3
390
F
347
3E
  0
LAYER
  5
149
330
2
100
AcDbSymbolTableRecord
100
AcDbLayerTableRecord
  2
Vacuum
 70
0
 62
255
  6
Continuous
370
    -3
390
F
347
3E
  0
LAYER
  5
16d
330
2
100
AcDbSymbolTableRecord
100
AcDbLayerTableRecord
  2
poy_beam_width
 70
0
 62
4
  6
Continuous
370
    -3
390
F
347
3E
  0
LAYER
  5
16e
330
2
100
AcDbSymbolTableRecord
100
AcDbLayerTableRecord
  2
pox_beam_width
 70
0
 62
4
  6
Continuous
370
    -3
390
F
347
3E
  0
LAYER
  5
16f
330
2
100
AcDbSymbolTableRecord
100
AcDbLayerTableRecord
  2
aux_beam_width
 70
0
 62
4
  6
Continuous
370
    -3
390
F
347
3E
  0
ENDTAB
  0
TABLE
  2
STYLE
  5
3
330
0
100
AcDbSymbolTable
 70
    33
  0
STYLE
  5
11
330
3
100
AcDbSymbolTableRecord
100
AcDbTextStyleTableRecord
  2
Standard
 70
     0
 40
0.0
 41
1.0
 50
0.0
 71
     0
 42
2.5
  3
txt
  4

  0
ENDTAB
  0
TABLE
  2
VIEW
  5
6
330
0
100
AcDbSymbolTable
 70
     0
  0
ENDTAB
  0
TABLE
  2
UCS
  5
7
330
0
100
AcDbSymbolTable
 70
     0
  0
ENDTAB
  0
TABLE
  2
APPID
  5
9
330
0
100
AcDbSymbolTable
 70
     1
  0
APPID
  5
12
330
9
100
AcDbSymbolTableRecord
100
AcDbRegAppTableRecord
  2
ACAD
 70
     0
  0
ENDTAB
  0
TABLE
  2
DIMSTYLE
  5
A
330
0
100
AcDbSymbolTable
 70
     1
100
AcDbDimStyleTable
  0
DIMSTYLE
105
27
330
A
100
AcDbSymbolTableRecord
100
AcDbDimStyleTableRecord
  2
ISO-25
 70
     0
 41
2.5
 42
0.625
 43
3.75
 44
1.25
 73
     0
 74
     0
 77
     1
 78
     8
140
2.5
141
2.5
143
0.03937007874016
147
0.625
171
     3
172
     1
178
     0
271
     2
272
     2
274
     3
278
    44
283
     0
284
     8
340
11
  0
ENDTAB
  0
TABLE
  2
BLOCK_RECORD
  5
1
330
0
100
AcDbSymbolTable
 70
     1
  0
BLOCK_RECORD
  5
1F
330
1
100
AcDbSymbolTableRecord
100
AcDbBlockTableRecord
  2
*Model_Space
340
22
 70
     0
280
     1
281
     0
  0
BLOCK_RECORD
  5
1B
330
1
100
AcDbSymbolTableRecord
100
AcDbBlockTableRecord
  2
*Paper_Space
340
1E
 70
     0
280
     1
281
     0
  0
BLOCK_RECORD
  5
23
330
1
100
AcDbSymbolTableRecord
100
AcDbBlockTableRecord
  2
*Paper_Space0
340
26
 70
     0
280
     1
281
     0
  0
ENDTAB
    0
ENDSEC
  0
SECTION
  2
BLOCKS
  0
BLOCK
  5
20
330
1F
100
AcDbEntity
  8
0
100
AcDbBlockBegin
  2
*Model_Space
 70
     0
 10
0.0
 20
0.0
 30
0.0
  3
*Model_Space
  1

  0
ENDBLK
  5
21
330
1F
100
AcDbEntity
  8
0
100
AcDbBlockEnd
  0
BLOCK
  5
1C
330
1B
100
AcDbEntity
 67
     1
  8
0
100
AcDbBlockBegin
  2
*Paper_Space
 70
     0
 10
0.0
 20
0.0
 30
0.0
  3
*Paper_Space
  1

  0
ENDBLK
  5
1D
330
1B
100
AcDbEntity
 67
     1
  8
0
100
AcDbBlockEnd
  0
BLOCK
  5
24
330
23
100
AcDbEntity
  8
0
100
AcDbBlockBegin
  2
*Paper_Space0
 70
     0
 10
0.0
 20
0.0
 30
0.0
  3
*Paper_Space0
  1

  0
ENDBLK
  5
25
330
23
100
AcDbEntity
  8
0
100
AcDbBlockEnd
  0
ENDSEC
  0
SECTION
  2
ENTITIES
  0
LINE
  5
79
330
1F
100
AcDbEntity
  8
Mirrors
100
AcDbLine
 10
172.235133536
 20
-15694.9556356
 30
0.0
  11
171.226432245
 21
-15790.5852197
 31
0.0
  0
LINE
  5
7a
330
1F
100
AcDbEntity
  8
Mirrors
100
AcDbLine
 10
-78.8517423525
 20
-15796.6780719
 30
0.0
  11
-77.7509600738
 21
-15692.3187811
 31
0.0
  0
LINE
  5
7b
330
1F
100
AcDbEntity
  8
Mirrors
100
AcDbLine
 10
-77.8564342524
 20
-15702.3182249
 30
0.0
  11
172.129659358
 21
-15704.9550793
 31
0.0
  0
LWPOLYLINE
  5
7c
330
1F
100
AcDbEntity
  8
Mirrors
100
AcDbPolyline
 90
60
 70
0
43
0.0
 10
-77.7509600738
 20
-15692.3187811
 10
-73.4410791589
 20
-15692.3854943
 10
-69.131190379
 20
-15692.4514619
 10
-64.8212937341
 20
-15692.5166839
 10
-60.5113892243
 20
-15692.5811602
 10
-56.2014768494
 20
-15692.6448909
 10
-51.8915566097
 20
-15692.7078759
 10
-47.5816285051
 20
-15692.7701153
 10
-43.2716925355
 20
-15692.8316091
 10
-38.9617487011
 20
-15692.8923573
 10
-34.6517970019
 20
-15692.9523598
 10
-30.3418374377
 20
-15693.0116167
 10
-26.0318700088
 20
-15693.070128
 10
-21.721894715
 20
-15693.1278936
 10
-17.4119115564
 20
-15693.1849137
 10
-13.101920533
 20
-15693.2411881
 10
-8.79192164476
 20
-15693.2967169
 10
-4.48191489178
 20
-15693.3515001
 10
-0.17190027403
 20
-15693.4055377
 10
4.13812220849
 20
-15693.4588296
 10
8.44815255577
 20
-15693.511376
 10
12.7581907678
 20
-15693.5631767
 10
17.0682368446
 20
-15693.6142318
 10
21.3782907861
 20
-15693.6645413
 10
25.6883525923
 20
-15693.7141051
 10
29.9984222633
 20
-15693.7629234
 10
34.308499799
 20
-15693.8109961
 10
38.6185851995
 20
-15693.8583231
 10
42.9286784646
 20
-15693.9049045
 10
47.2387795945
 20
-15693.9507403
 10
47.2387795945
 20
-15693.9507403
 10
51.5488885891
 20
-15693.9958305
 10
55.8590054485
 20
-15694.0401751
 10
60.1691301725
 20
-15694.0837741
 10
64.4792627613
 20
-15694.1266275
 10
68.7894032148
 20
-15694.1687352
 10
73.099551533
 20
-15694.2100974
 10
77.409707716
 20
-15694.2507139
 10
81.7198717637
 20
-15694.2905848
 10
86.0300436762
 20
-15694.3297101
 10
90.3402234534
 20
-15694.3680898
 10
94.6504110954
 20
-15694.4057238
 10
98.9606066021
 20
-15694.4426123
 10
103.270809974
 20
-15694.4787551
 10
107.58102121
 20
-15694.5141523
 10
111.891240311
 20
-15694.5488039
 10
116.201467277
 20
-15694.5827099
 10
120.511702108
 20
-15694.6158703
 10
124.821944803
 20
-15694.648285
 10
129.132195364
 20
-15694.6799541
 10
133.442453789
 20
-15694.7108776
 10
137.752720079
 20
-15694.7410554
 10
142.062994234
 20
-15694.7704877
 10
146.373276254
 20
-15694.7991743
 10
150.683566138
 20
-15694.8271152
 10
154.993863888
 20
-15694.8543106
 10
159.304169503
 20
-15694.8807603
 10
163.614482982
 20
-15694.9064644
 10
167.924804327
 20
-15694.9314228
 10
172.235133536
 20
-15694.9556356
  0
LINE
  5
7d
330
1F
100
AcDbEntity
  8
Mirrors
100
AcDbLine
 10
171.226432245
 20
-15790.5852197
 30
0.0
  11
-78.8517423525
 21
-15796.6780719
 31
0.0
  0
LINE
  5
7e
330
1F
100
AcDbEntity
  8
Mirrors
100
AcDbLine
 10
3026507.10965
 20
93.6192715165
 30
0.0
  11
3026656.62969
 21
93.6192715165
 31
0.0
  0
LINE
  5
7f
330
1F
100
AcDbEntity
  8
Mirrors
100
AcDbLine
 10
3026657.58962
 20
-126.380728483
 30
0.0
  11
3026507.10965
 21
-126.380728483
 31
0.0
  0
LINE
  5
80
330
1F
100
AcDbEntity
  8
Mirrors
100
AcDbLine
 10
3026522.10965
 20
-126.380728483
 30
0.0
  11
3026522.10965
 21
93.6192715165
 31
0.0
  0
LWPOLYLINE
  5
81
330
1F
100
AcDbEntity
  8
Mirrors
100
AcDbPolyline
 90
60
 70
0
43
0.0
 10
3026507.10965
 20
-126.380728483
 10
3026507.10987
 20
-122.587625035
 10
3026507.11008
 20
-118.794521587
 10
3026507.11028
 20
-115.001418139
 10
3026507.11047
 20
-111.20831469
 10
3026507.11066
 20
-107.415211242
 10
3026507.11084
 20
-103.622107794
 10
3026507.11101
 20
-99.8290043455
 10
3026507.11117
 20
-96.0359008973
 10
3026507.11132
 20
-92.242797449
 10
3026507.11147
 20
-88.4496940007
 10
3026507.11161
 20
-84.6565905524
 10
3026507.11174
 20
-80.8634871042
 10
3026507.11187
 20
-77.0703836559
 10
3026507.11199
 20
-73.2772802076
 10
3026507.1121
 20
-69.4841767593
 10
3026507.1122
 20
-65.6910733111
 10
3026507.11229
 20
-61.8979698628
 10
3026507.11238
 20
-58.1048664145
 10
3026507.11246
 20
-54.3117629662
 10
3026507.11253
 20
-50.5186595179
 10
3026507.1126
 20
-46.7255560697
 10
3026507.11265
 20
-42.9324526214
 10
3026507.1127
 20
-39.1393491731
 10
3026507.11274
 20
-35.3462457248
 10
3026507.11278
 20
-31.5531422766
 10
3026507.1128
 20
-27.7600388283
 10
3026507.11282
 20
-23.96693538
 10
3026507.11283
 20
-20.1738319317
 10
3026507.11284
 20
-16.3807284835
 10
3026507.11284
 20
-16.3807284835
 10
3026507.11283
 20
-12.5876250352
 10
3026507.11282
 20
-8.79452158691
 10
3026507.1128
 20
-5.00141813864
 10
3026507.11278
 20
-1.20831469036
 10
3026507.11274
 20
2.58478875792
 10
3026507.1127
 20
6.37789220619
 10
3026507.11265
 20
10.1709956545
 10
3026507.1126
 20
13.9640991027
 10
3026507.11253
 20
17.757202551
 10
3026507.11246
 20
21.5503059993
 10
3026507.11238
 20
25.3434094476
 10
3026507.11229
 20
29.1365128958
 10
3026507.1122
 20
32.9296163441
 10
3026507.1121
 20
36.7227197924
 10
3026507.11199
 20
40.5158232407
 10
3026507.11187
 20
44.3089266889
 10
3026507.11174
 20
48.1020301372
 10
3026507.11161
 20
51.8951335855
 10
3026507.11147
 20
55.6882370338
 10
3026507.11132
 20
59.4813404821
 10
3026507.11117
 20
63.2744439303
 10
3026507.11101
 20
67.0675473786
 10
3026507.11084
 20
70.8606508269
 10
3026507.11066
 20
74.6537542752
 10
3026507.11047
 20
78.4468577234
 10
3026507.11028
 20
82.2399611717
 10
3026507.11008
 20
86.03306462
 10
3026507.10987
 20
89.8261680683
 10
3026507.10965
 20
93.6192715165
  0
LINE
  5
82
330
1F
100
AcDbEntity
  8
Mirrors
100
AcDbLine
 10
3026656.62969
 20
93.6192715165
 30
0.0
  11
3026657.58962
 21
-126.380728483
 31
0.0
  0
LINE
  5
83
330
1F
100
AcDbEntity
  8
Mirrors
100
AcDbLine
 10
-117.590557088
 20
3023221.97254
 30
0.0
  11
-117.590557088
 21
3023371.49258
 31
0.0
  0
LINE
  5
84
330
1F
100
AcDbEntity
  8
Mirrors
100
AcDbLine
 10
102.409442912
 20
3023372.45251
 30
0.0
  11
102.409442912
 21
3023221.97254
 31
0.0
  0
LINE
  5
85
330
1F
100
AcDbEntity
  8
Mirrors
100
AcDbLine
 10
102.409442912
 20
3023236.97254
 30
0.0
  11
-117.590557088
 21
3023236.97254
 31
0.0
  0
LWPOLYLINE
  5
86
330
1F
100
AcDbEntity
  8
Mirrors
100
AcDbPolyline
 90
60
 70
0
43
0.0
 10
102.409442912
 20
3023221.97254
 10
98.6163394635
 20
3023221.97276
 10
94.8232360153
 20
3023221.97297
 10
91.030132567
 20
3023221.97317
 10
87.2370291187
 20
3023221.97336
 10
83.4439256704
 20
3023221.97355
 10
79.6508222222
 20
3023221.97373
 10
75.8577187739
 20
3023221.9739
 10
72.0646153256
 20
3023221.97406
 10
68.2715118773
 20
3023221.97421
 10
64.4784084291
 20
3023221.97436
 10
60.6853049808
 20
3023221.9745
 10
56.8922015325
 20
3023221.97463
 10
53.0990980842
 20
3023221.97476
 10
49.305994636
 20
3023221.97488
 10
45.5128911877
 20
3023221.97499
 10
41.7197877394
 20
3023221.97509
 10
37.9266842911
 20
3023221.97518
 10
34.1335808429
 20
3023221.97527
 10
30.3404773946
 20
3023221.97535
 10
26.5473739463
 20
3023221.97542
 10
22.754270498
 20
3023221.97549
 10
18.9611670498
 20
3023221.97554
 10
15.1680636015
 20
3023221.97559
 10
11.3749601532
 20
3023221.97563
 10
7.58185670492
 20
3023221.97567
 10
3.78875325665
 20
3023221.97569
 10
-0.00435019162676
 20
3023221.97571
 10
-3.7974536399
 20
3023221.97572
 10
-7.59055708818
 20
3023221.97573
 10
-7.59055708818
 20
3023221.97573
 10
-11.3836605365
 20
3023221.97572
 10
-15.1767639847
 20
3023221.97571
 10
-18.969867433
 20
3023221.97569
 10
-22.7629708813
 20
3023221.97567
 10
-26.5560743296
 20
3023221.97563
 10
-30.3491777778
 20
3023221.97559
 10
-34.1422812261
 20
3023221.97554
 10
-37.9353846744
 20
3023221.97549
 10
-41.7284881227
 20
3023221.97542
 10
-45.5215915709
 20
3023221.97535
 10
-49.3146950192
 20
3023221.97527
 10
-53.1077984675
 20
3023221.97518
 10
-56.9009019158
 20
3023221.97509
 10
-60.694005364
 20
3023221.97499
 10
-64.4871088123
 20
3023221.97488
 10
-68.2802122606
 20
3023221.97476
 10
-72.0733157089
 20
3023221.97463
 10
-75.8664191571
 20
3023221.9745
 10
-79.6595226054
 20
3023221.97436
 10
-83.4526260537
 20
3023221.97421
 10
-87.245729502
 20
3023221.97406
 10
-91.0388329502
 20
3023221.9739
 10
-94.8319363985
 20
3023221.97373
 10
-98.6250398468
 20
3023221.97355
 10
-102.418143295
 20
3023221.97336
 10
-106.211246743
 20
3023221.97317
 10
-110.004350192
 20
3023221.97297
 10
-113.79745364
 20
3023221.97276
 10
-117.590557088
 20
3023221.97254
  0
LINE
  5
87
330
1F
100
AcDbEntity
  8
Mirrors
100
AcDbLine
 10
-117.590557088
 20
3023371.49258
 30
0.0
  11
102.409442912
 21
3023372.45251
 31
0.0
  0
LINE
  5
88
330
1F
100
AcDbEntity
  8
Mirrors
100
AcDbLine
 10
134.380236173
 20
134.320334
 30
0.0
  11
191.123712967
 21
77.5515515999
 31
0.0
  0
LINE
  5
89
330
1F
100
AcDbEntity
  8
Mirrors
100
AcDbLine
 10
-78.0118527562
 20
-190.713855746
 30
0.0
  11
-134.380236173
 21
-134.320334
 31
0.0
  0
LINE
  5
8a
330
1F
100
AcDbEntity
  8
Mirrors
100
AcDbLine
 10
-128.724643163
 20
-139.978449208
 30
0.0
  11
140.035829184
 21
128.662218793
 31
0.0
  0
LINE
  5
8b
330
1F
100
AcDbEntity
  8
Mirrors
100
AcDbLine
 10
-134.380236173
 20
-134.320334
 30
0.0
  11
134.380236173
 21
134.320334
 31
0.0
  0
LINE
  5
8c
330
1F
100
AcDbEntity
  8
Mirrors
100
AcDbLine
 10
191.123712967
 20
77.5515515999
 30
0.0
  11
-78.0118527562
 21
-190.713855746
 31
0.0
  0
LINE
  5
8d
330
1F
100
AcDbEntity
  8
Mirrors
100
AcDbLine
 10
390.280099826
 20
-19326.7088432
 30
0.0
  11
390.07113176
 21
-19422.3435187
 31
0.0
  0
LINE
  5
8e
330
1F
100
AcDbEntity
  8
Mirrors
100
AcDbLine
 10
140.052652572
 20
-19430.5274251
 30
0.0
  11
140.280696638
 21
-19326.1625781
 31
0.0
  0
LINE
  5
8f
330
1F
100
AcDbEntity
  8
Mirrors
100
AcDbLine
 10
140.258846032
 20
-19336.1625542
 30
0.0
  11
390.25824922
 21
-19336.7088194
 31
0.0
  0
LWPOLYLINE
  5
90
330
1F
100
AcDbEntity
  8
Mirrors
100
AcDbPolyline
 90
60
 70
0
43
0.0
 10
140.280696638
 20
-19326.1625781
 10
144.591028651
 20
-19326.1731522
 10
148.901360752
 20
-19326.1836858
 10
153.211692941
 20
-19326.1941789
 10
157.522025219
 20
-19326.2046314
 10
161.832357586
 20
-19326.2150433
 10
166.142690041
 20
-19326.2254147
 10
170.453022585
 20
-19326.2357455
 10
174.763355218
 20
-19326.2460358
 10
179.073687939
 20
-19326.2562855
 10
183.384020748
 20
-19326.2664947
 10
187.694353647
 20
-19326.2766633
 10
192.004686634
 20
-19326.2867914
 10
196.315019709
 20
-19326.2968789
 10
200.625352874
 20
-19326.3069259
 10
204.935686126
 20
-19326.3169323
 10
209.246019468
 20
-19326.3268981
 10
213.556352898
 20
-19326.3368234
 10
217.866686417
 20
-19326.3467081
 10
222.177020024
 20
-19326.3565523
 10
226.48735372
 20
-19326.366356
 10
230.797687504
 20
-19326.376119
 10
235.108021377
 20
-19326.3858415
 10
239.418355339
 20
-19326.3955235
 10
243.72868939
 20
-19326.4051649
 10
248.039023528
 20
-19326.4147658
 10
252.349357756
 20
-19326.4243261
 10
256.659692072
 20
-19326.4338458
 10
260.970026477
 20
-19326.443325
 10
265.28036097
 20
-19326.4527637
 10
265.28036097
 20
-19326.4527637
 10
269.590695552
 20
-19326.4621618
 10
273.901030223
 20
-19326.4715193
 10
278.211364982
 20
-19326.4808363
 10
282.52169983
 20
-19326.4901127
 10
286.832034767
 20
-19326.4993486
 10
291.142369792
 20
-19326.5085439
 10
295.452704906
 20
-19326.5176987
 10
299.763040108
 20
-19326.5268129
 10
304.073375399
 20
-19326.5358865
 10
308.383710778
 20
-19326.5449196
 10
312.694046247
 20
-19326.5539122
 10
317.004381803
 20
-19326.5628642
 10
321.314717449
 20
-19326.5717756
 10
325.625053183
 20
-19326.5806465
 10
329.935389005
 20
-19326.5894768
 10
334.245724917
 20
-19326.5982666
 10
338.556060916
 20
-19326.6070158
 10
342.866397005
 20
-19326.6157245
 10
347.176733182
 20
-19326.6243926
 10
351.487069448
 20
-19326.6330201
 10
355.797405802
 20
-19326.6416071
 10
360.107742245
 20
-19326.6501536
 10
364.418078776
 20
-19326.6586595
 10
368.728415397
 20
-19326.6671248
 10
373.038752105
 20
-19326.6755496
 10
377.349088903
 20
-19326.6839339
 10
381.659425789
 20
-19326.6922775
 10
385.969762763
 20
-19326.7005807
 10
390.280099826
 20
-19326.7088432
  0
LINE
  5
91
330
1F
100
AcDbEntity
  8
Mirrors
100
AcDbLine
 10
390.07113176
 20
-19422.3435187
 30
0.0
  11
140.052652572
 21
-19430.5274251
 31
0.0
  0
LINE
  5
92
330
1F
100
AcDbEntity
  8
Mirrors
100
AcDbLine
 10
172.532692709
 20
-4581.10373406
 30
0.0
  11
173.714177048
 21
-4485.47612862
 31
0.0
  0
LINE
  5
93
330
1F
100
AcDbEntity
  8
Mirrors
100
AcDbLine
 10
423.802952085
 20
-4479.83513056
 30
0.0
  11
422.51361397
 21
-4584.19226212
 31
0.0
  0
LINE
  5
94
330
1F
100
AcDbEntity
  8
Mirrors
100
AcDbLine
 10
422.637155093
 20
-4574.19302527
 30
0.0
  11
172.656233832
 21
-4571.10449721
 31
0.0
  0
LWPOLYLINE
  5
95
330
1F
100
AcDbEntity
  8
Mirrors
100
AcDbPolyline
 90
60
 70
0
43
0.0
 10
422.51361397
 20
-4584.19226212
 10
418.201406358
 20
-4584.3164069
 10
413.889275772
 20
-4584.43431728
 10
409.5772222
 20
-4584.54599434
 10
405.265245627
 20
-4584.65143912
 10
400.953346042
 20
-4584.75065261
 10
396.641523434
 20
-4584.84363577
 10
392.32977779
 20
-4584.9303895
 10
388.018109101
 20
-4585.01091469
 10
383.706517355
 20
-4585.08521218
 10
379.395002543
 20
-4585.15328275
 10
375.083564655
 20
-4585.21512718
 10
370.772203682
 20
-4585.27074617
 10
366.460919617
 20
-4585.32014042
 10
362.149712451
 20
-4585.36331056
 10
357.838582177
 20
-4585.4002572
 10
353.527528788
 20
-4585.4309809
 10
349.216552277
 20
-4585.45548218
 10
344.905652638
 20
-4585.47376153
 10
340.594829866
 20
-4585.4858194
 10
336.284083955
 20
-4585.4916562
 10
331.973414902
 20
-4585.49127229
 10
327.662822702
 20
-4585.48466801
 10
323.352307351
 20
-4585.47184365
 10
319.041868847
 20
-4585.45279945
 10
314.731507186
 20
-4585.42753564
 10
310.421222367
 20
-4585.39605239
 10
306.111014387
 20
-4585.35834983
 10
301.800883247
 20
-4585.31442806
 10
297.490828944
 20
-4585.26428714
 10
297.490828944
 20
-4585.26428714
 10
293.180851479
 20
-4585.20792709
 10
288.870950852
 20
-4585.14534789
 10
284.561127064
 20
-4585.07654949
 10
280.251380115
 20
-4585.00153177
 10
275.941710008
 20
-4584.92029461
 10
271.632116745
 20
-4584.83283784
 10
267.322600328
 20
-4584.73916124
 10
263.013160761
 20
-4584.63926455
 10
258.703798047
 20
-4584.53314749
 10
254.394512189
 20
-4584.42080973
 10
250.085303194
 20
-4584.30225089
 10
245.776171065
 20
-4584.17747057
 10
241.467115809
 20
-4584.04646832
 10
237.158137431
 20
-4583.90924365
 10
232.849235937
 20
-4583.76579605
 10
228.540411336
 20
-4583.61612494
 10
224.231663633
 20
-4583.46022972
 10
219.922992838
 20
-4583.29810976
 10
215.614398958
 20
-4583.12976436
 10
211.305882002
 20
-4582.95519282
 10
206.997441981
 20
-4582.77439437
 10
202.689078903
 20
-4582.58736821
 10
198.380792779
 20
-4582.39411351
 10
194.07258362
 20
-4582.19462939
 10
189.764451437
 20
-4581.98891493
 10
185.456396242
 20
-4581.77696918
 10
181.148418047
 20
-4581.55879115
 10
176.840516865
 20
-4581.3343798
 10
172.532692709
 20
-4581.10373406
  0
LINE
  5
96
330
1F
100
AcDbEntity
  8
Mirrors
100
AcDbLine
 10
173.714177048
 20
-4485.47612862
 30
0.0
  11
423.802952085
 21
-4479.83513056
 31
0.0
  0
LINE
  5
97
330
1F
100
AcDbEntity
  8
Mirrors
100
AcDbLine
 10
-19461.7355526
 20
101.717441151
 30
0.0
  11
-19557.3700711
 21
101.4459564
 31
0.0
  0
LINE
  5
98
330
1F
100
AcDbEntity
  8
Mirrors
100
AcDbLine
 10
-19566.8099188
 20
351.420166136
 30
0.0
  11
-19462.4452432
 21
351.716433827
 31
0.0
  0
LINE
  5
99
330
1F
100
AcDbEntity
  8
Mirrors
100
AcDbLine
 10
-19472.4452029
 20
351.688046205
 30
0.0
  11
-19471.7355123
 21
101.689053529
 31
0.0
  0
LWPOLYLINE
  5
9a
330
1F
100
AcDbEntity
  8
Mirrors
100
AcDbPolyline
 90
60
 70
0
43
0.0
 10
-19462.4452432
 20
351.716433827
 10
-19462.4341629
 20
347.406103086
 10
-19462.4230421
 20
343.09577246
 10
-19462.4118808
 20
338.78544195
 10
-19462.4006788
 20
334.475111554
 10
-19462.3894364
 20
330.164781274
 10
-19462.3781533
 20
325.854451108
 10
-19462.3668298
 20
321.544121058
 10
-19462.3554656
 20
317.233791123
 10
-19462.344061
 20
312.923461303
 10
-19462.3326157
 20
308.613131598
 10
-19462.3211299
 20
304.302802008
 10
-19462.3096036
 20
299.992472534
 10
-19462.2980367
 20
295.682143174
 10
-19462.2864292
 20
291.37181393
 10
-19462.2747812
 20
287.061484801
 10
-19462.2630926
 20
282.751155787
 10
-19462.2513635
 20
278.440826888
 10
-19462.2395939
 20
274.130498104
 10
-19462.2277836
 20
269.820169435
 10
-19462.2159329
 20
265.509840881
 10
-19462.2040415
 20
261.199512443
 10
-19462.1921096
 20
256.88918412
 10
-19462.1801372
 20
252.578855911
 10
-19462.1681242
 20
248.268527818
 10
-19462.1560706
 20
243.95819984
 10
-19462.1439765
 20
239.647871977
 10
-19462.1318419
 20
235.33754423
 10
-19462.1196667
 20
231.027216597
 10
-19462.1074509
 20
226.716889079
 10
-19462.1074509
 20
226.716889079
 10
-19462.0951946
 20
222.406561677
 10
-19462.0828977
 20
218.09623439
 10
-19462.0705603
 20
213.785907218
 10
-19462.0581823
 20
209.475580161
 10
-19462.0457638
 20
205.165253219
 10
-19462.0333047
 20
200.854926392
 10
-19462.020805
 20
196.54459968
 10
-19462.0082648
 20
192.234273084
 10
-19461.9956841
 20
187.923946602
 10
-19461.9830628
 20
183.613620236
 10
-19461.9704009
 20
179.303293985
 10
-19461.9576985
 20
174.992967849
 10
-19461.9449555
 20
170.682641828
 10
-19461.932172
 20
166.372315922
 10
-19461.9193479
 20
162.061990132
 10
-19461.9064833
 20
157.751664456
 10
-19461.8935781
 20
153.441338896
 10
-19461.8806323
 20
149.131013451
 10
-19461.867646
 20
144.82068812
 10
-19461.8546192
 20
140.510362905
 10
-19461.8415518
 20
136.200037805
 10
-19461.8284438
 20
131.889712821
 10
-19461.8152953
 20
127.579387951
 10
-19461.8021063
 20
123.269063196
 10
-19461.7888766
 20
118.958738557
 10
-19461.7756065
 20
114.648414033
 10
-19461.7622957
 20
110.338089624
 10
-19461.7489445
 20
106.02776533
 10
-19461.7355526
 20
101.717441151
  0
LINE
  5
9b
330
1F
100
AcDbEntity
  8
Mirrors
100
AcDbLine
 10
-19557.3700711
 20
101.4459564
 30
0.0
  11
-19566.8099188
 21
351.420166136
 31
0.0
  0
LINE
  5
9c
330
1F
100
AcDbEntity
  8
Mirrors
100
AcDbLine
 10
-15762.0579045
 20
-112.773928553
 30
0.0
  11
-15857.6868114
 21
-113.844909033
 31
0.0
  0
LINE
  5
9d
330
1F
100
AcDbEntity
  8
Mirrors
100
AcDbLine
 10
-15869.2161153
 20
136.041648048
 30
0.0
  11
-15764.8575635
 21
137.210394774
 31
0.0
  0
LINE
  5
9e
330
1F
100
AcDbEntity
  8
Mirrors
100
AcDbLine
 10
-15774.8569364
 20
137.098408414
 30
0.0
  11
-15772.0572774
 21
-112.885914913
 31
0.0
  0
LWPOLYLINE
  5
9f
330
1F
100
AcDbEntity
  8
Mirrors
100
AcDbPolyline
 90
60
 70
0
43
0.0
 10
-15764.8575635
 20
137.210394774
 10
-15764.8305436
 20
132.900082248
 10
-15764.802778
 20
128.589778072
 10
-15764.7742668
 20
124.279482246
 10
-15764.74501
 20
119.969194771
 10
-15764.7150076
 20
115.658915647
 10
-15764.6842595
 20
111.348644873
 10
-15764.6527658
 20
107.038382449
 10
-15764.6205265
 20
102.728128376
 10
-15764.5875416
 20
98.4178826537
 10
-15764.553811
 20
94.1076452817
 10
-15764.5193348
 20
89.7974162601
 10
-15764.484113
 20
85.4871955889
 10
-15764.4481456
 20
81.1769832682
 10
-15764.4114326
 20
76.8667792978
 10
-15764.3739739
 20
72.5565836779
 10
-15764.3357697
 20
68.2463964083
 10
-15764.2968198
 20
63.9362174891
 10
-15764.2571243
 20
59.6260469203
 10
-15764.2166832
 20
55.3158847018
 10
-15764.1754965
 20
51.0057308337
 10
-15764.1335642
 20
46.6955853158
 10
-15764.0908863
 20
42.3854481484
 10
-15764.0474627
 20
38.0753193312
 10
-15764.0032936
 20
33.7651988644
 10
-15763.9583788
 20
29.4550867479
 10
-15763.9127185
 20
25.1449829817
 10
-15763.8663125
 20
20.8348875658
 10
-15763.8191609
 20
16.5248005002
 10
-15763.7712638
 20
12.2147217849
 10
-15763.7712638
 20
12.2147217849
 10
-15763.722621
 20
7.90465141993
 10
-15763.6732326
 20
3.59458940526
 10
-15763.6230986
 20
-0.715464259101
 10
-15763.572219
 20
-5.02550957315
 10
-15763.5205938
 20
-9.33554653689
 10
-15763.4682229
 20
-13.6455751503
 10
-15763.4151065
 20
-17.9555954134
 10
-15763.3612445
 20
-22.2656073262
 10
-15763.3066368
 20
-26.5756108886
 10
-15763.2512836
 20
-30.8856061007
 10
-15763.1951847
 20
-35.1955929625
 10
-15763.1383402
 20
-39.5055714739
 10
-15763.0807501
 20
-43.815541635
 10
-15763.0224144
 20
-48.1255034457
 10
-15762.9633331
 20
-52.435456906
 10
-15762.9035061
 20
-56.7454020159
 10
-15762.8429336
 20
-61.0553387754
 10
-15762.7816154
 20
-65.3652671845
 10
-15762.7195516
 20
-69.6751872432
 10
-15762.6567422
 20
-73.9850989514
 10
-15762.5931872
 20
-78.2950023092
 10
-15762.5288866
 20
-82.6048973165
 10
-15762.4638403
 20
-86.9147839733
 10
-15762.3980484
 20
-91.2246622796
 10
-15762.3315109
 20
-95.5345322354
 10
-15762.2642277
 20
-99.8443938406
 10
-15762.196199
 20
-104.154247095
 10
-15762.1274245
 20
-108.464091999
 10
-15762.0579045
 20
-112.773928553
  0
LINE
  5
a0
330
1F
100
AcDbEntity
  8
Mirrors
100
AcDbLine
 10
-15857.6868114
 20
-113.844909033
 30
0.0
  11
-15869.2161153
 21
136.041648048
 31
0.0
  0
LINE
  5
a1
330
1F
100
AcDbEntity
  8
Mirrors
100
AcDbLine
 10
-4699.76391156
 20
393.643713251
 30
0.0
  11
-4604.13709585
 21
394.887475452
 31
0.0
  0
LINE
  5
a2
330
1F
100
AcDbEntity
  8
Mirrors
100
AcDbLine
 10
-4592.15631266
 20
145.022157544
 30
0.0
  11
-4696.51258241
 21
143.664856427
 31
0.0
  0
LINE
  5
a3
330
1F
100
AcDbEntity
  8
Mirrors
100
AcDbLine
 10
-4686.51342814
 20
143.794909593
 30
0.0
  11
-4689.76475728
 21
393.773766417
 31
0.0
  0
LWPOLYLINE
  5
a4
330
1F
100
AcDbEntity
  8
Mirrors
100
AcDbPolyline
 90
60
 70
0
43
0.0
 10
-4696.51258241
 20
143.664856427
 10
-4696.74088011
 20
147.972596488
 10
-4696.96312515
 20
152.280415273
 10
-4697.1793185
 20
156.588312768
 10
-4697.3894611
 20
160.896288961
 10
-4697.59355388
 20
165.204343842
 10
-4697.7915977
 20
169.512477397
 10
-4697.9835934
 20
173.820689617
 10
-4698.16954178
 20
178.128980491
 10
-4698.34944361
 20
182.437350009
 10
-4698.52329962
 20
186.745798161
 10
-4698.69111051
 20
191.054324939
 10
-4698.85287692
 20
195.362930333
 10
-4699.0085995
 20
199.671614336
 10
-4699.15827882
 20
203.980376941
 10
-4699.30191543
 20
208.289218139
 10
-4699.43950986
 20
212.598137925
 10
-4699.57106258
 20
216.907136291
 10
-4699.69657404
 20
221.216213233
 10
-4699.81604464
 20
225.525368744
 10
-4699.92947477
 20
229.834602821
 10
-4700.03686475
 20
234.143915458
 10
-4700.1382149
 20
238.453306651
 10
-4700.23352547
 20
242.762776398
 10
-4700.3227967
 20
247.072324696
 10
-4700.40602879
 20
251.38195154
 10
-4700.48322189
 20
255.691656931
 10
-4700.55437613
 20
260.001440865
 10
-4700.6194916
 20
264.311303342
 10
-4700.67856835
 20
268.621244361
 10
-4700.67856835
 20
268.621244361
 10
-4700.7316064
 20
272.931263922
 10
-4700.77860573
 20
277.241362025
 10
-4700.81956628
 20
281.551538671
 10
-4700.85448798
 20
285.861793861
 10
-4700.88337069
 20
290.172127596
 10
-4700.90621426
 20
294.482539879
 10
-4700.92301848
 20
298.793030712
 10
-4700.93378314
 20
303.103600099
 10
-4700.93850795
 20
307.414248042
 10
-4700.93719263
 20
311.724974545
 10
-4700.92983682
 20
316.035779614
 10
-4700.91644016
 20
320.346663252
 10
-4700.89700224
 20
324.657625466
 10
-4700.87152261
 20
328.968666261
 10
-4700.84000079
 20
333.279785643
 10
-4700.80243627
 20
337.590983618
 10
-4700.75882849
 20
341.902260195
 10
-4700.70917687
 20
346.213615381
 10
-4700.65348079
 20
350.525049183
 10
-4700.59173958
 20
354.836561611
 10
-4700.52395254
 20
359.148152673
 10
-4700.45011896
 20
363.45982238
 10
-4700.37023806
 20
367.77157074
 10
-4700.28430904
 20
372.083397764
 10
-4700.19233106
 20
376.395303464
 10
-4700.09430325
 20
380.707287851
 10
-4699.9902247
 20
385.019350936
 10
-4699.88009446
 20
389.331492731
 10
-4699.76391156
 20
393.643713251
  0
LINE
  5
a5
330
1F
100
AcDbEntity
  8
Mirrors
100
AcDbLine
 10
-4604.13709585
 20
394.887475452
 30
0.0
  11
-4592.15631266
 21
145.022157544
 31
0.0
  0
LINE
  5
a6
330
1F
100
AcDbEntity
  8
Mirrors
100
AcDbLine
 10
26507.1160223
 20
-126.380728491
 30
0.0
  11
26357.0680258
 21
-126.380728491
 31
0.0
  0
LINE
  5
a7
330
1F
100
AcDbEntity
  8
Mirrors
100
AcDbLine
 10
26357.1640189
 20
93.6192715095
 30
0.0
  11
26507.1160223
 21
93.6192715095
 31
0.0
  0
LINE
  5
a8
330
1F
100
AcDbEntity
  8
Mirrors
100
AcDbLine
 10
26492.1160223
 20
93.6192715095
 30
0.0
  11
26492.1160223
 21
-126.380728491
 31
0.0
  0
LWPOLYLINE
  5
a9
330
1F
100
AcDbEntity
  8
Mirrors
100
AcDbPolyline
 90
60
 70
0
43
0.0
 10
26507.1160223
 20
93.6192715095
 10
26507.1158065
 20
89.8261680612
 10
26507.1155983
 20
86.0330646129
 10
26507.1153976
 20
82.2399611646
 10
26507.1152045
 20
78.4468577163
 10
26507.115019
 20
74.6537542681
 10
26507.114841
 20
70.8606508198
 10
26507.1146706
 20
67.0675473715
 10
26507.1145078
 20
63.2744439232
 10
26507.1143526
 20
59.481340475
 10
26507.1142049
 20
55.6882370267
 10
26507.1140648
 20
51.8951335784
 10
26507.1139323
 20
48.1020301301
 10
26507.1138074
 20
44.3089266819
 10
26507.11369
 20
40.5158232336
 10
26507.1135802
 20
36.7227197853
 10
26507.113478
 20
32.929616337
 10
26507.1133833
 20
29.1365128888
 10
26507.1132962
 20
25.3434094405
 10
26507.1132167
 20
21.5503059922
 10
26507.1131448
 20
17.7572025439
 10
26507.1130804
 20
13.9640990957
 10
26507.1130236
 20
10.1709956474
 10
26507.1129744
 20
6.37789219911
 10
26507.1129328
 20
2.58478875083
 10
26507.1128987
 20
-1.20831469744
 10
26507.1128722
 20
-5.00141814572
 10
26507.1128532
 20
-8.794521594
 10
26507.1128419
 20
-12.5876250423
 10
26507.1128381
 20
-16.3807284905
 10
26507.1128381
 20
-16.3807284905
 10
26507.1128419
 20
-20.1738319388
 10
26507.1128532
 20
-23.9669353871
 10
26507.1128722
 20
-27.7600388354
 10
26507.1128987
 20
-31.5531422837
 10
26507.1129328
 20
-35.3462457319
 10
26507.1129744
 20
-39.1393491802
 10
26507.1130236
 20
-42.9324526285
 10
26507.1130804
 20
-46.7255560768
 10
26507.1131448
 20
-50.518659525
 10
26507.1132167
 20
-54.3117629733
 10
26507.1132962
 20
-58.1048664216
 10
26507.1133833
 20
-61.8979698699
 10
26507.113478
 20
-65.6910733181
 10
26507.1135802
 20
-69.4841767664
 10
26507.11369
 20
-73.2772802147
 10
26507.1138074
 20
-77.070383663
 10
26507.1139323
 20
-80.8634871112
 10
26507.1140648
 20
-84.6565905595
 10
26507.1142049
 20
-88.4496940078
 10
26507.1143526
 20
-92.2427974561
 10
26507.1145078
 20
-96.0359009043
 10
26507.1146706
 20
-99.8290043526
 10
26507.114841
 20
-103.622107801
 10
26507.115019
 20
-107.415211249
 10
26507.1152045
 20
-111.208314697
 10
26507.1153976
 20
-115.001418146
 10
26507.1155983
 20
-118.794521594
 10
26507.1158065
 20
-122.587625042
 10
26507.1160223
 20
-126.380728491
  0
LINE
  5
aa
330
1F
100
AcDbEntity
  8
Mirrors
100
AcDbLine
 10
26357.0680258
 20
-126.380728491
 30
0.0
  11
26357.1640189
 21
93.6192715095
 31
0.0
  0
LINE
  5
ab
330
1F
100
AcDbEntity
  8
Mirrors
100
AcDbLine
 10
102.409442927
 20
23221.9789127
 30
0.0
  11
102.409442927
 21
23071.9309161
 31
0.0
  0
LINE
  5
ac
330
1F
100
AcDbEntity
  8
Mirrors
100
AcDbLine
 10
-117.590557073
 20
23072.0269093
 30
0.0
  11
-117.590557073
 21
23221.9789127
 31
0.0
  0
LINE
  5
ad
330
1F
100
AcDbEntity
  8
Mirrors
100
AcDbLine
 10
-117.590557073
 20
23206.9789127
 30
0.0
  11
102.409442927
 21
23206.9789127
 31
0.0
  0
LWPOLYLINE
  5
ae
330
1F
100
AcDbEntity
  8
Mirrors
100
AcDbPolyline
 90
60
 70
0
43
0.0
 10
-117.590557073
 20
23221.9789127
 10
-113.797453625
 20
23221.9786969
 10
-110.004350177
 20
23221.9784886
 10
-106.211246728
 20
23221.978288
 10
-102.41814328
 20
23221.9780949
 10
-98.6250398319
 20
23221.9779093
 10
-94.8319363836
 20
23221.9777314
 10
-91.0388329354
 20
23221.977561
 10
-87.2457294871
 20
23221.9773982
 10
-83.4526260388
 20
23221.977243
 10
-79.6595225905
 20
23221.9770953
 10
-75.8664191423
 20
23221.9769552
 10
-72.073315694
 20
23221.9768227
 10
-68.2802122457
 20
23221.9766978
 10
-64.4871087974
 20
23221.9765804
 10
-60.6940053491
 20
23221.9764706
 10
-56.9009019009
 20
23221.9763684
 10
-53.1077984526
 20
23221.9762737
 10
-49.3146950043
 20
23221.9761866
 10
-45.521591556
 20
23221.9761071
 10
-41.7284881078
 20
23221.9760352
 10
-37.9353846595
 20
23221.9759708
 10
-34.1422812112
 20
23221.975914
 10
-30.3491777629
 20
23221.9758648
 10
-26.5560743147
 20
23221.9758231
 10
-22.7629708664
 20
23221.9757891
 10
-18.9698674181
 20
23221.9757626
 10
-15.1767639698
 20
23221.9757436
 10
-11.3836605216
 20
23221.9757323
 10
-7.59055707329
 20
23221.9757285
 10
-7.59055707329
 20
23221.9757285
 10
-3.79745362501
 20
23221.9757323
 10
-0.00435017673398
 20
23221.9757436
 10
3.78875327154
 20
23221.9757626
 10
7.58185671982
 20
23221.9757891
 10
11.3749601681
 20
23221.9758231
 10
15.1680636164
 20
23221.9758648
 10
18.9611670646
 20
23221.975914
 10
22.7542705129
 20
23221.9759708
 10
26.5473739612
 20
23221.9760352
 10
30.3404774095
 20
23221.9761071
 10
34.1335808577
 20
23221.9761866
 10
37.926684306
 20
23221.9762737
 10
41.7197877543
 20
23221.9763684
 10
45.5128912026
 20
23221.9764706
 10
49.3059946509
 20
23221.9765804
 10
53.0990980991
 20
23221.9766978
 10
56.8922015474
 20
23221.9768227
 10
60.6853049957
 20
23221.9769552
 10
64.478408444
 20
23221.9770953
 10
68.2715118922
 20
23221.977243
 10
72.0646153405
 20
23221.9773982
 10
75.8577187888
 20
23221.977561
 10
79.6508222371
 20
23221.9777314
 10
83.4439256853
 20
23221.9779093
 10
87.2370291336
 20
23221.9780949
 10
91.0301325819
 20
23221.978288
 10
94.8232360302
 20
23221.9784886
 10
98.6163394784
 20
23221.9786969
 10
102.409442927
 20
23221.9789127
  0
LINE
  5
af
330
1F
100
AcDbEntity
  8
Mirrors
100
AcDbLine
 10
102.409442927
 20
23071.9309161
 30
0.0
  11
-117.590557073
 21
23072.0269093
 31
0.0
  0
TEXT
  5
b1
330
1F
100
AcDbEntity
  8
text
100
AcDbText
 10
-5.25925792001
 20
11.8863365374
 30
0.0
  40
10.0
  1

 50
0.0
 7
Standard
100
AcDbText
  0
TEXT
  5
b2
330
1F
100
AcDbEntity
  8
text
100
AcDbText
 10
57.0959130554
 20
-15593.9365567
 30
0.0
  40
10.0
  1

 50
0.0
 7
Standard
100
AcDbText
  0
TEXT
  5
b3
330
1F
100
AcDbEntity
  8
text
100
AcDbText
 10
-4800.70655304
 20
278.337327847
 30
0.0
  40
10.0
  1

 50
0.0
 7
Standard
100
AcDbText
  0
TEXT
  5
b4
330
1F
100
AcDbEntity
  8
text
100
AcDbText
 10
26307.1224992
 20
-26.3971766252
 30
0.0
  40
10.0
  1

 50
0.0
 7
Standard
100
AcDbText
  0
TEXT
  5
b5
330
1F
100
AcDbEntity
  8
text
100
AcDbText
 10
285.241176815
 20
-4685.0137033
 30
0.0
  40
10.0
  1

 50
0.0
 7
Standard
100
AcDbText
  0
TEXT
  5
b6
330
1F
100
AcDbEntity
  8
text
100
AcDbText
 10
285.241176815
 20
-4685.0137033
 30
0.0
  40
10.0
  1

 50
0.0
 7
Standard
100
AcDbText
  0
TEXT
  5
b7
330
1F
100
AcDbEntity
  8
text
100
AcDbText
 10
-17.5905570883
 20
3023121.97573
 30
0.0
  40
10.0
  1

 50
0.0
 7
Standard
100
AcDbText
  0
TEXT
  5
b8
330
1F
100
AcDbEntity
  8
text
100
AcDbText
 10
9.96709999781
 20
100.003284534
 30
0.0
  40
10.0
  1

 50
0.0
 7
Standard
100
AcDbText
  0
TEXT
  5
b9
330
1F
100
AcDbEntity
  8
text
100
AcDbText
 10
-15663.5664058
 20
4.53445917937
 30
0.0
  40
10.0
  1

 50
0.0
 7
Standard
100
AcDbText
  0
TEXT
  5
ba
330
1F
100
AcDbEntity
  8
text
100
AcDbText
 10
-19562.1354356
 20
236.432972566
 30
0.0
  40
10.0
  1

 50
0.0
 7
Standard
100
AcDbText
  0
TEXT
  5
bb
330
1F
100
AcDbEntity
  8
text
100
AcDbText
 10
275.498843164
 20
-19226.474853
 30
0.0
  40
10.0
  1

 50
0.0
 7
Standard
100
AcDbText
  0
TEXT
  5
bc
330
1F
100
AcDbEntity
  8
text
100
AcDbText
 10
3026407.11284
 20
-6.3807284836
 30
0.0
  40
10.0
  1

 50
0.0
 7
Standard
100
AcDbText
  0
TEXT
  5
bd
330
1F
100
AcDbEntity
  8
text
100
AcDbText
 10
275.28037436
 20
-19326.4575613
 30
0.0
  40
10.0
  1

 50
0.0
 7
Standard
100
AcDbText
  0
TEXT
  5
be
330
1F
100
AcDbEntity
  8
text
100
AcDbText
 10
275.28037436
 20
-19326.4575613
 30
0.0
  40
10.0
  1

 50
0.0
 7
Standard
100
AcDbText
  0
TEXT
  5
bf
330
1F
100
AcDbEntity
  8
text
100
AcDbText
 10
-17.5905570805
 20
23121.9757285
 30
0.0
  40
10.0
  1

 50
0.0
 7
Standard
100
AcDbText
  0
TEXT
  5
c0
330
1F
100
AcDbEntity
  8
text
100
AcDbText
 10
26457.1160223
 20
-26.3807284836
 30
0.0
  40
10.0
  1

 50
0.0
 7
Standard
100
AcDbText
  0
TEXT
  5
c1
330
1F
100
AcDbEntity
  8
text
100
AcDbText
 10
275.498843165
 20
-19226.474853
 30
0.0
  40
10.0
  1

 50
0.0
 7
Standard
100
AcDbText
  0
TEXT
  5
c2
330
1F
100
AcDbEntity
  8
text
100
AcDbText
 10
26407.1128381
 20
-6.3807284836
 30
0.0
  40
10.0
  1

 50
0.0
 7
Standard
100
AcDbText
  0
TEXT
  5
c3
330
1F
100
AcDbEntity
  8
text
100
AcDbText
 10
7.32042548481
 20
10.8512214504
 30
0.0
  40
10.0
  1

 50
0.0
 7
Standard
100
AcDbText
  0
TEXT
  5
c4
330
1F
100
AcDbEntity
  8
text
100
AcDbText
 10
-19661.953028
 20
237.719098734
 30
0.0
  40
10.0
  1

 50
0.0
 7
Standard
100
AcDbText
  0
TEXT
  5
c5
330
1F
100
AcDbEntity
  8
text
100
AcDbText
 10
7.32042548483
 20
10.8512214504
 30
0.0
  40
10.0
  1

 50
0.0
 7
Standard
100
AcDbText
  0
TEXT
  5
c6
330
1F
100
AcDbEntity
  8
text
100
AcDbText
 10
93.475648134
 20
-36.9093918388
 30
0.0
  40
10.0
  1

 50
0.0
 7
Standard
100
AcDbText
  0
TEXT
  5
c7
330
1F
100
AcDbEntity
  8
text
100
AcDbText
 10
57.0959130553
 20
-15593.9365567
 30
0.0
  40
10.0
  1

 50
0.0
 7
Standard
100
AcDbText
  0
TEXT
  5
c8
330
1F
100
AcDbEntity
  8
text
100
AcDbText
 10
-17.5576570785
 20
22971.9756282
 30
0.0
  40
10.0
  1

 50
0.0
 7
Standard
100
AcDbText
  0
TEXT
  5
c9
330
1F
100
AcDbEntity
  8
text
100
AcDbText
 10
-99.9922213782
 20
10.0774830125
 30
0.0
  40
10.0
  1

 50
0.0
 7
Standard
100
AcDbText
  0
TEXT
  5
ca
330
1F
100
AcDbEntity
  8
text
100
AcDbText
 10
188.219674748
 20
-34.9901552992
 30
0.0
  40
10.0
  1

 50
0.0
 7
Standard
100
AcDbText
  0
TEXT
  5
cb
330
1F
100
AcDbEntity
  8
text
100
AcDbText
 10
26257.1127378
 20
-6.41362848563
 30
0.0
  40
10.0
  1

 50
0.0
 7
Standard
100
AcDbText
  0
TEXT
  5
cc
330
1F
100
AcDbEntity
  8
text
100
AcDbText
 10
275.060596553
 20
-19426.5973404
 30
0.0
  40
10.0
  1

 50
0.0
 7
Standard
100
AcDbText
  0
TEXT
  5
cd
330
1F
100
AcDbEntity
  8
text
100
AcDbText
 10
275.060596552
 20
-19426.5973404
 30
0.0
  40
10.0
  1

 50
0.0
 7
Standard
100
AcDbText
  0
TEXT
  5
ce
330
1F
100
AcDbEntity
  8
text
100
AcDbText
 10
2.58397354443
 20
23171.9874884
 30
0.0
  40
10.0
  1

 50
0.0
 7
Standard
100
AcDbText
  0
TEXT
  5
cf
330
1F
100
AcDbEntity
  8
text
100
AcDbText
 10
42.8377978973
 20
46.3230641355
 30
0.0
  40
10.0
  1

 50
0.0
 7
Standard
100
AcDbText
  0
TEXT
  5
d0
330
1F
100
AcDbEntity
  8
text
100
AcDbText
 10
-17.5469227759
 20
23121.9844932
 30
0.0
  40
10.0
  1

 50
0.0
 7
Standard
100
AcDbText
  0
TEXT
  5
d1
330
1F
100
AcDbEntity
  8
text
100
AcDbText
 10
45.3306469497
 20
135.519247092
 30
0.0
  40
10.0
  1

 50
0.0
 7
Standard
100
AcDbText
  0
TEXT
  5
d2
330
1F
100
AcDbEntity
  8
text
100
AcDbText
 10
-4801.07431381
 20
300.240442287
 30
0.0
  40
10.0
  1

 50
0.0
 7
Standard
100
AcDbText
  0
TEXT
  5
d3
330
1F
100
AcDbEntity
  8
text
100
AcDbText
 10
42.6762753765
 20
-15593.8252156
 30
0.0
  40
10.0
  1

 50
0.0
 7
Standard
100
AcDbText
  0
TEXT
  5
d4
330
1F
100
AcDbEntity
  8
text
100
AcDbText
 10
-15664.3918037
 20
61.7010320274
 30
0.0
  40
10.0
  1

 50
0.0
 7
Standard
100
AcDbText
  0
TEXT
  5
d5
330
1F
100
AcDbEntity
  8
text
100
AcDbText
 10
-19600.3501609
 20
420.050828186
 30
0.0
  40
10.0
  1

 50
0.0
 7
Standard
100
AcDbText
  0
TEXT
  5
d6
330
1F
100
AcDbEntity
  8
text
100
AcDbText
 10
228.508747774
 20
-4683.80764187
 30
0.0
  40
10.0
  1

 50
0.0
 7
Standard
100
AcDbText
  0
TEXT
  5
d7
330
1F
100
AcDbEntity
  8
text
100
AcDbText
 10
-236.529418985
 20
-15585.409399
 30
0.0
  40
10.0
  1

 50
0.0
 7
Standard
100
AcDbText
  0
TEXT
  5
d8
330
1F
100
AcDbEntity
  8
text
100
AcDbText
 10
9.21471583871
 20
-15756.1344271
 30
0.0
  40
25.0
  1
SR3
 50
0.0
 7
Standard
100
AcDbText
  0
TEXT
  5
d9
330
1F
100
AcDbEntity
  8
text
100
AcDbText
 10
3026507.10965
 20
-35.1307284835
 30
0.0
  40
37.5
  1
ETMX
 50
0.0
 7
Standard
100
AcDbText
  0
TEXT
  5
da
330
1F
100
AcDbEntity
  8
text
100
AcDbText
 10
-82.5905570882
 20
3023278.22254
 30
0.0
  40
37.5
  1
ETMY
 50
0.0
 7
Standard
100
AcDbText
  0
TEXT
  5
db
330
1F
100
AcDbEntity
  8
text
100
AcDbText
 10
8.27796505273
 20
-38.2905760365
 30
0.0
  40
20.0
  1
BS
 50
0.0
 7
Standard
100
AcDbText
  0
TEXT
  5
dc
330
1F
100
AcDbEntity
  8
text
100
AcDbText
 10
227.671145199
 20
-19388.9355913
 30
0.0
  40
25.0
  1
SRM
 50
0.0
 7
Standard
100
AcDbText
  0
TEXT
  5
dd
330
1F
100
AcDbEntity
  8
text
100
AcDbText
 10
260.640858953
 20
-4545.15181384
 30
0.0
  40
25.0
  1
SR2
 50
0.0
 7
Standard
100
AcDbText
  0
TEXT
  5
de
330
1F
100
AcDbEntity
  8
text
100
AcDbText
 10
-19549.5901964
 20
214.074999379
 30
0.0
  40
25.0
  1
PRM
 50
0.0
 7
Standard
100
AcDbText
  0
TEXT
  5
df
330
1F
100
AcDbEntity
  8
text
100
AcDbText
 10
-15850.9545987
 20
-0.841698690765
 30
0.0
  40
25.0
  1
PR3
 50
0.0
 7
Standard
100
AcDbText
  0
TEXT
  5
e0
330
1F
100
AcDbEntity
  8
text
100
AcDbText
 10
-4685.64247562
 20
256.804550668
 30
0.0
  40
25.0
  1
PR2
 50
0.0
 7
Standard
100
AcDbText
  0
TEXT
  5
e1
330
1F
100
AcDbEntity
  8
text
100
AcDbText
 10
26357.1160223
 20
-35.1307284905
 30
0.0
  40
37.5
  1
ITMX
 50
0.0
 7
Standard
100
AcDbText
  0
TEXT
  5
e2
330
1F
100
AcDbEntity
  8
text
100
AcDbText
 10
-82.5905570733
 20
23128.2289127
 30
0.0
  40
37.5
  1
ITMY
 50
0.0
 7
Standard
100
AcDbText
  0
LINE
  5
e4
330
1F
100
AcDbEntity
  8
main_beam
100
AcDbLine
 10
-1.31450406116e-10
 20
-1.31894495325e-10
 30
0.0
  11
88.2163902141
 21
-25.0230553013
 31
0.0
  0
LINE
  5
e5
330
1F
100
AcDbEntity
  8
main_beam
100
AcDbLine
 10
24.9447961723
 20
-88.0900821486
 30
0.0
  11
47.238779595
 21
-15693.9507403
 31
0.0
  0
LINE
  5
e6
330
1F
100
AcDbEntity
  8
main_beam
100
AcDbLine
 10
-19462.1074509
 20
226.716889079
 30
0.0
  11
-4700.67856835
 21
268.621244361
 31
0.0
  0
LINE
  5
e7
330
1F
100
AcDbEntity
  8
main_beam
100
AcDbLine
 10
26357.1160223
 20
-16.3807284836
 30
0.0
  11
26207.1192146
 21
-16.4300766273
 31
0.0
  0
LINE
  5
e8
330
1F
100
AcDbEntity
  8
main_beam
100
AcDbLine
 10
47.238779595
 20
-15693.9507403
 30
0.0
  11
297.490828944
 21
-4585.26428714
 31
0.0
  0
LINE
  5
e9
330
1F
100
AcDbEntity
  8
main_beam
100
AcDbLine
 10
47.2387795949
 20
-15693.9507403
 30
0.0
  11
297.490828944
 21
-4585.26428714
 31
0.0
  0
LINE
  5
ea
330
1F
100
AcDbEntity
  8
main_beam
100
AcDbLine
 10
-7.5905570805
 20
23221.9757285
 30
0.0
  11
-7.59055708831
 21
3023221.97573
 31
0.0
  0
LINE
  5
eb
330
1F
100
AcDbEntity
  8
main_beam
100
AcDbLine
 10
-7.5905570805
 20
23071.9789127
 30
0.0
  11
-1.55222189269e-10
 21
-1.56319401867e-10
 31
0.0
  0
LINE
  5
ec
330
1F
100
AcDbEntity
  8
main_beam
100
AcDbLine
 10
-4700.67856835
 20
268.621244361
 30
0.0
  11
-15763.7712638
 21
12.2147217848
 31
0.0
  0
LINE
  5
ed
330
1F
100
AcDbEntity
  8
main_beam
100
AcDbLine
 10
-19562.089995
 20
226.433061268
 30
0.0
  11
-19462.1074509
 21
226.716889079
 31
0.0
  0
LINE
  5
ee
330
1F
100
AcDbEntity
  8
main_beam
100
AcDbLine
 10
297.490828944
 20
-4585.26428714
 30
0.0
  11
265.28036097
 21
-19326.4527637
 31
0.0
  0
LINE
  5
ef
330
1F
100
AcDbEntity
  8
main_beam
100
AcDbLine
 10
26507.1128381
 20
-16.3807284836
 30
0.0
  11
3026507.11284
 21
-16.3807284836
 31
0.0
  0
LINE
  5
f0
330
1F
100
AcDbEntity
  8
main_beam
100
AcDbLine
 10
265.28036097
 20
-19326.4527637
 30
0.0
  11
265.061892166
 21
-19426.4354719
 31
0.0
  0
LINE
  5
f1
330
1F
100
AcDbEntity
  8
main_beam
100
AcDbLine
 10
265.280360971
 20
-19326.4527637
 30
0.0
  11
265.061892167
 21
-19426.4354719
 31
0.0
  0
LINE
  5
f2
330
1F
100
AcDbEntity
  8
main_beam
100
AcDbLine
 10
-7.5905570805
 20
23071.9789127
 30
0.0
  11
-7.5905570805
 21
23221.9757285
 31
0.0
  0
LINE
  5
f3
330
1F
100
AcDbEntity
  8
main_beam
100
AcDbLine
 10
26507.1128381
 20
-16.3807284836
 30
0.0
  11
26357.1160223
 21
-16.3807284836
 31
0.0
  0
LINE
  5
f4
330
1F
100
AcDbEntity
  8
main_beam
100
AcDbLine
 10
297.490828944
 20
-4585.26428714
 30
0.0
  11
265.280360971
 21
-19326.4527637
 31
0.0
  0
LINE
  5
f5
330
1F
100
AcDbEntity
  8
main_beam
100
AcDbLine
 10
26357.1160223
 20
-16.3807284836
 30
0.0
  11
26507.1128381
 21
-16.3807284836
 31
0.0
  0
LINE
  5
f6
330
1F
100
AcDbEntity
  8
main_beam
100
AcDbLine
 10
-1.56319401867e-10
 20
-1.56596957623e-10
 30
0.0
  11
24.9447961723
 21
-88.0900821486
 31
0.0
  0
LINE
  5
f7
330
1F
100
AcDbEntity
  8
main_beam
100
AcDbLine
 10
-20562.0071904
 20
239.301716379
 30
0.0
  11
-19562.089995
 21
226.433061268
 31
0.0
  0
LINE
  5
f8
330
1F
100
AcDbEntity
  8
main_beam
100
AcDbLine
 10
-1.27897692437e-10
 20
-1.2825851492e-10
 30
0.0
  11
24.9447961723
 21
-88.0900821486
 31
0.0
  0
LINE
  5
f9
330
1F
100
AcDbEntity
  8
main_beam
100
AcDbLine
 10
88.2163902141
 20
-25.0230553013
 30
0.0
  11
-1.28314026071e-10
 21
-1.28251576026e-10
 31
0.0
  0
LINE
  5
fa
330
1F
100
AcDbEntity
  8
main_beam
100
AcDbLine
 10
24.9447961723
 20
-88.0900821486
 30
0.0
  11
47.2387795949
 21
-15693.9507403
 31
0.0
  0
LINE
  5
fb
330
1F
100
AcDbEntity
  8
main_beam
100
AcDbLine
 10
-1.31450406116e-10
 20
-1.31894495325e-10
 30
0.0
  11
-7.5905570805
 21
23071.9789127
 31
0.0
  0
LINE
  5
fc
330
1F
100
AcDbEntity
  8
main_beam
100
AcDbLine
 10
-15763.7712638
 20
12.2147217848
 30
0.0
  11
-1.31450406116e-10
 21
-1.31885821708e-10
 31
0.0
  0
LINE
  5
fd
330
1F
100
AcDbEntity
  8
main_beam
100
AcDbLine
 10
26357.1160223
 20
-16.3807284836
 30
0.0
  11
88.2163902141
 21
-25.0230553013
 31
0.0
  0
LINE
  5
fe
330
1F
100
AcDbEntity
  8
main_beam
100
AcDbLine
 10
88.2163902141
 20
-25.0230553013
 30
0.0
  11
26357.1160223
 21
-16.3807284836
 31
0.0
  0
LINE
  5
ff
330
1F
100
AcDbEntity
  8
main_beam
100
AcDbLine
 10
265.061892167
 20
-19426.4354719
 30
0.0
  11
263.273008877
 21
-19526.4024143
 31
0.0
  0
LINE
  5
100
330
1F
100
AcDbEntity
  8
main_beam
100
AcDbLine
 10
265.061892166
 20
-19426.4354719
 30
0.0
  11
263.273008877
 21
-19526.4024143
 31
0.0
  0
LINE
  5
102
330
1F
100
AcDbEntity
  8
aux_beam
100
AcDbLine
 10
-7.45966013212
 20
23221.9757285
 30
0.0
  11
-7.32874241651
 21
23071.9787985
 31
0.0
  0
LINE
  5
103
330
1F
100
AcDbEntity
  8
aux_beam
100
AcDbLine
 10
35.5166532741
 20
35.5008211491
 30
0.0
  11
60.5468715896
 21
-52.6031139417
 31
0.0
  0
LINE
  5
104
330
1F
100
AcDbEntity
  8
aux_beam
100
AcDbLine
 10
-7.5905570805
 20
23071.9789127
 30
0.0
  11
-7.45966013212
 21
23221.9757285
 31
0.0
  0
LINE
  5
105
330
1F
100
AcDbEntity
  8
aux_beam
100
AcDbLine
 10
-7.32874241651
 20
23071.9787985
 30
0.0
  11
35.5166532741
 21
35.5008211491
 31
0.0
  0
LINE
  5
106
330
1F
100
AcDbEntity
  8
aux_beam
100
AcDbLine
 10
-15764.3684803
 20
71.9315809372
 30
0.0
  11
-4700.89504756
 21
292.233282173
 31
0.0
  0
LINE
  5
107
330
1F
100
AcDbEntity
  8
aux_beam
100
AcDbLine
 10
88.2163902141
 20
-25.0230553013
 30
0.0
  11
32.3196010615
 21
-15693.7889054
 31
0.0
  0
LINE
  5
108
330
1F
100
AcDbEntity
  8
aux_beam
100
AcDbLine
 10
35.5166532741
 20
35.5008211491
 30
0.0
  11
-15764.3684803
 21
71.9315809372
 31
0.0
  0
LINE
  5
109
330
1F
100
AcDbEntity
  8
aux_beam
100
AcDbLine
 10
-4700.89504756
 20
292.233282173
 30
0.0
  11
-19700.2533885
 21
430.975347515
 31
0.0
  0
LINE
  5
10a
330
1F
100
AcDbEntity
  8
aux_beam
100
AcDbLine
 10
32.3196010615
 20
-15693.7889054
 30
0.0
  11
240.379429695
 21
-4584.01241698
 31
0.0
  0
LINE
  5
10b
330
1F
100
AcDbEntity
  8
aux_beam
100
AcDbLine
 10
240.379429695
 20
-4584.01241698
 30
0.0
  11
-250.941281021
 21
-15684.8694323
 31
0.0
  0
LWPOLYLINE
  5
10f
330
1F
100
AcDbEntity
  8
main_beam_width
100
AcDbPolyline
 90
10
 70
0
43
0.0
 10
97.4817413926
 20
97.4382873232
 10
107.306730842
 20
94.6508501407
 10
117.131720292
 20
91.8634129584
 10
126.956709742
 20
89.0759757763
 10
136.781699192
 20
86.2885385943
 10
146.606688642
 20
83.5011014125
 10
156.431678092
 20
80.7136642309
 10
166.256667542
 20
77.9262270494
 10
176.081656993
 20
75.1387898681
 10
185.906646443
 20
72.351352687
  0
LWPOLYLINE
  5
110
330
1F
100
AcDbEntity
  8
main_beam_width
100
AcDbPolyline
 90
10
 70
0
43
0.0
 10
-97.4871341734
 20
-97.4436777
 10
-87.7084846046
 20
-100.216921044
 10
-77.9298350358
 20
-102.990164388
 10
-68.1511854671
 20
-105.763407732
 10
-58.3725358984
 20
-108.536651076
 10
-48.5938863298
 20
-111.309894421
 10
-38.8152367612
 20
-114.083137765
 10
-29.0365871927
 20
-116.85638111
 10
-19.2579376242
 20
-119.629624455
 10
-9.47928805575
 20
-122.4028678
  0
LWPOLYLINE
  5
111
330
1F
100
AcDbEntity
  8
main_beam_width
100
AcDbPolyline
 90
10
 70
0
43
0.0
 10
122.484340904
 20
9.13410161758
 10
125.131406355
 20
-1735.7473264
 10
127.778491627
 20
-3480.6287544
 10
130.425596626
 20
-5225.51018236
 10
133.072721259
 20
-6970.3916103
 10
135.719865434
 20
-8715.27303821
 10
138.367029058
 20
-10460.1544661
 10
141.014212042
 20
-12205.0358939
 10
143.661414293
 20
-13949.9173218
 10
146.308635722
 20
-15694.7987496
  0
LWPOLYLINE
  5
112
330
1F
100
AcDbEntity
  8
main_beam_width
100
AcDbPolyline
 90
10
 70
0
43
0.0
 10
-72.6119049913
 20
-185.331366877
 10
-70.3028867911
 20
-1908.37329815
 10
-67.9938879095
 20
-3631.41522945
 10
-65.6849082565
 20
-5354.45716078
 10
-63.3759477426
 20
-7077.49909214
 10
-61.0670062789
 20
-8800.54102352
 10
-58.7580837769
 20
-10523.5829549
 10
-56.4491801488
 20
-12246.6248864
 10
-54.1402953072
 20
-13969.6668178
 10
-51.8314291654
 20
-15692.7087493
  0
LWPOLYLINE
  5
113
330
1F
100
AcDbEntity
  8
main_beam_width
100
AcDbPolyline
 90
10
 70
0
43
0.0
 10
-19462.141608
 20
238.749230486
 10
-17821.9937123
 20
243.366884315
 10
-16181.8458437
 20
247.994040421
 10
-14541.6980022
 20
252.630767657
 10
-12901.550188
 20
257.277112403
 10
-11261.4024011
 20
261.93309802
 10
-9621.25464167
 20
266.598724562
 10
-7981.1069095
 20
271.27396878
 10
-6340.95920451
 20
275.958784398
 10
-4700.8115265
 20
280.653102669
  0
LWPOLYLINE
  5
114
330
1F
100
AcDbEntity
  8
main_beam_width
100
AcDbPolyline
 90
10
 70
0
43
0.0
 10
-19462.0732938
 20
214.684547673
 10
-17821.8984304
 20
219.378988198
 10
-16181.72354
 20
224.06392613
 10
-14541.5486224
 20
228.739292614
 10
-12901.3736775
 20
233.405041265
 10
-11261.1987052
 20
238.061148727
 10
-9621.02370563
 20
242.707614944
 10
-7980.8486787
 20
247.344463171
 10
-6340.67362461
 20
251.971739687
 10
-4700.49854353
 20
256.589513245
  0
LWPOLYLINE
  5
115
330
1F
100
AcDbEntity
  8
main_beam_width
100
AcDbPolyline
 90
10
 70
0
43
0.0
 10
26357.0745642
 20
-111.395760864
 10
26340.4163324
 20
-111.402687532
 10
26323.7581007
 20
-111.409614201
 10
26307.0998689
 20
-111.416540873
 10
26290.4416371
 20
-111.423467546
 10
26273.7834054
 20
-111.430394222
 10
26257.1251736
 20
-111.437320899
 10
26240.4669419
 20
-111.444247578
 10
26223.8087101
 20
-111.45117426
 10
26207.1504783
 20
-111.458100943
  0
LWPOLYLINE
  5
116
330
1F
100
AcDbEntity
  8
main_beam_width
100
AcDbPolyline
 90
10
 70
0
43
0.0
 10
26357.1574804
 20
78.6342912709
 10
26340.4830883
 20
78.6302530872
 10
26323.8086961
 20
78.6262149054
 10
26307.1343039
 20
78.6221767256
 10
26290.4599118
 20
78.6181385478
 10
26273.7855196
 20
78.614100372
 10
26257.1111274
 20
78.6100621981
 10
26240.4367353
 20
78.6060240262
 10
26223.7623431
 20
78.6019858563
 10
26207.0879509
 20
78.5979476883
  0
LWPOLYLINE
  5
117
330
1F
100
AcDbEntity
  8
main_beam_width
100
AcDbPolyline
 90
100
 70
0
43
0.0
 10
-51.8346155171
 20
-15692.708703
 10
-48.4241275934
 20
-15580.5106055
 10
-45.0136397508
 20
-15468.3125079
 10
-41.6031519916
 20
-15356.1144103
 10
-38.192664318
 20
-15243.9163127
 10
-34.7821767325
 20
-15131.7182152
 10
-31.3716892375
 20
-15019.5201176
 10
-27.9612018356
 20
-14907.32202
 10
-24.5507145294
 20
-14795.1239224
 10
-21.1402273219
 20
-14682.9258248
 10
-17.7297402158
 20
-14570.7277272
 10
-14.3192532142
 20
-14458.5296296
 10
-10.9087663202
 20
-14346.331532
 10
-7.49827953699
 20
-14234.1334344
 10
-4.08779286804
 20
-14121.9353368
 10
-0.677306316856
 20
-14009.7372392
 10
2.7331801129
 20
-13897.5391416
 10
6.14366641741
 20
-13785.341044
 10
9.55415259268
 20
-13673.1429464
 10
12.9646386345
 20
-13560.9448488
 10
16.3751245387
 20
-13448.7467512
 10
19.7856103006
 20
-13336.5486536
 10
23.1960959154
 20
-13224.3505559
 10
26.6065813784
 20
-13112.1524583
 10
30.0170666842
 20
-12999.9543607
 10
33.4275518275
 20
-12887.756263
 10
36.8380368027
 20
-12775.5581654
 10
40.2485216038
 20
-12663.3600678
 10
43.6590062246
 20
-12551.1619701
 10
47.0694906587
 20
-12438.9638725
 10
50.4799748992
 20
-12326.7657748
 10
53.8904589389
 20
-12214.5676772
 10
57.3009427704
 20
-12102.3695795
 10
60.7114263858
 20
-11990.1714818
 10
64.1219097768
 20
-11877.9733841
 10
67.5323929346
 20
-11765.7752865
 10
70.9428758502
 20
-11653.5771888
 10
74.3533585137
 20
-11541.3790911
 10
77.7638409152
 20
-11429.1809934
 10
81.1743230438
 20
-11316.9828957
 10
84.5848048882
 20
-11204.784798
 10
87.9952864363
 20
-11092.5867003
 10
91.4057676757
 20
-10980.3886025
 10
94.8162485929
 20
-10868.1905048
 10
98.2267291737
 20
-10755.9924071
 10
101.637209403
 20
-10643.7943093
 10
105.047689265
 20
-10531.5962116
 10
108.458168743
 20
-10419.3981138
 10
111.868647819
 20
-10307.200016
 10
115.279126474
 20
-10195.0019183
 10
118.689604687
 20
-10082.8038205
 10
122.100082437
 20
-9970.60572266
 10
125.510559701
 20
-9858.40762485
 10
128.921036454
 20
-9746.20952703
 10
132.331512669
 20
-9634.01142919
 10
135.74198832
 20
-9521.81333134
 10
139.152463375
 20
-9409.61523348
 10
142.562937803
 20
-9297.4171356
 10
145.973411568
 20
-9185.21903771
 10
149.383884633
 20
-9073.0209398
 10
152.794356958
 20
-8960.82284188
 10
156.2048285
 20
-8848.62474394
 10
159.615299212
 20
-8736.42664598
 10
163.025769043
 20
-8624.228548
 10
166.436237938
 20
-8512.03045
 10
169.846705839
 20
-8399.83235197
 10
173.257172681
 20
-8287.63425393
 10
176.667638393
 20
-8175.43615585
 10
180.078102898
 20
-8063.23805775
 10
183.488566114
 20
-7951.03995962
 10
186.899027948
 20
-7838.84186146
 10
190.309488301
 20
-7726.64376327
 10
193.719947061
 20
-7614.44566504
 10
197.130404106
 20
-7502.24756677
 10
200.540859303
 20
-7390.04946846
 10
203.951312503
 20
-7277.85137011
 10
207.361763539
 20
-7165.65327171
 10
210.772212228
 20
-7053.45517325
 10
214.182658365
 20
-6941.25707474
 10
217.593101719
 20
-6829.05897616
 10
221.003542031
 20
-6716.86087751
 10
224.413979008
 20
-6604.66277879
 10
227.824412321
 20
-6492.46467999
 10
231.234841594
 20
-6380.2665811
 10
234.645266396
 20
-6268.0684821
 10
238.055686236
 20
-6155.870383
 10
241.466100547
 20
-6043.67228377
 10
244.876508671
 20
-5931.4741844
 10
248.286909844
 20
-5819.27608487
 10
251.697303167
 20
-5707.07798517
 10
255.107687583
 20
-5594.87988526
 10
258.518061833
 20
-5482.68178513
 10
261.928424411
 20
-5370.48368473
 10
265.338773498
 20
-5258.28558403
 10
268.749106876
 20
-5146.08748298
 10
272.159421811
 20
-5033.88938151
 10
275.5697149
 20
-4921.69127955
 10
278.979981842
 20
-4809.493177
 10
282.390217134
 20
-4697.29507373
 10
285.800413607
 20
-4585.0969696
  0
LWPOLYLINE
  5
118
330
1F
100
AcDbEntity
  8
main_beam_width
100
AcDbPolyline
 90
100
 70
0
43
0.0
 10
146.30238649
 20
-15694.7987085
 10
147.947585918
 20
-15582.5824161
 10
149.592785428
 20
-15470.3661237
 10
151.237985021
 20
-15358.1498314
 10
152.883184699
 20
-15245.933539
 10
154.528384466
 20
-15133.7172466
 10
156.173584323
 20
-15021.5009542
 10
157.818784273
 20
-14909.2846618
 10
159.463984319
 20
-14797.0683695
 10
161.109184463
 20
-14684.8520771
 10
162.754384709
 20
-14572.6357847
 10
164.39958506
 20
-14460.4194924
 10
166.044785518
 20
-14348.2032
 10
167.689986087
 20
-14235.9869077
 10
169.33518677
 20
-14123.7706153
 10
170.980387571
 20
-14011.5543229
 10
172.625588494
 20
-13899.3380306
 10
174.270789541
 20
-13787.1217382
 10
175.915990718
 20
-13674.9054459
 10
177.561192029
 20
-13562.6891536
 10
179.206393477
 20
-13450.4728612
 10
180.851595067
 20
-13338.2565689
 10
182.496796805
 20
-13226.0402765
 10
184.141998694
 20
-13113.8239842
 10
185.787200741
 20
-13001.6076919
 10
187.43240295
 20
-12889.3913996
 10
189.077605327
 20
-12777.1751073
 10
190.722807879
 20
-12664.9588149
 10
192.368010611
 20
-12552.7425226
 10
194.013213529
 20
-12440.5262303
 10
195.658416641
 20
-12328.309938
 10
197.303619954
 20
-12216.0936457
 10
198.948823475
 20
-12103.8773534
 10
200.594027213
 20
-11991.6610611
 10
202.239231175
 20
-11879.4447689
 10
203.88443537
 20
-11767.2284766
 10
205.529639807
 20
-11655.0121843
 10
207.174844496
 20
-11542.795892
 10
208.820049448
 20
-11430.5795998
 10
210.465254672
 20
-11318.3633075
 10
212.110460181
 20
-11206.1470153
 10
213.755665986
 20
-11093.930723
 10
215.400872099
 20
-10981.7144308
 10
217.046078535
 20
-10869.4981386
 10
218.691285308
 20
-10757.2818464
 10
220.336492432
 20
-10645.0655541
 10
221.981699923
 20
-10532.8492619
 10
223.626907799
 20
-10420.6329697
 10
225.272116076
 20
-10308.4166776
 10
226.917324775
 20
-10196.2003854
 10
228.562533916
 20
-10083.9840932
 10
230.20774352
 20
-9971.76780106
 10
231.85295361
 20
-9859.55150892
 10
233.49816421
 20
-9747.33521678
 10
235.143375349
 20
-9635.11892466
 10
236.788587052
 20
-9522.90263255
 10
238.433799351
 20
-9410.68634046
 10
240.079012278
 20
-9298.47004838
 10
241.724225867
 20
-9186.25375631
 10
243.369440157
 20
-9074.03746426
 10
245.014655186
 20
-8961.82117223
 10
246.659870999
 20
-8849.60488021
 10
248.305087642
 20
-8737.38858821
 10
249.950305166
 20
-8625.17229624
 10
251.595523626
 20
-8512.95600428
 10
253.240743081
 20
-8400.73971235
 10
254.885963595
 20
-8288.52342044
 10
256.531185238
 20
-8176.30712855
 10
258.176408089
 20
-8064.0908367
 10
259.821632229
 20
-7951.87454487
 10
261.466857751
 20
-7839.65825307
 10
263.112084756
 20
-7727.44196131
 10
264.757313353
 20
-7615.22566958
 10
266.402543664
 20
-7503.00937789
 10
268.047775825
 20
-7390.79308624
 10
269.693009983
 20
-7278.57679464
 10
271.338246305
 20
-7166.36050308
 10
272.983484974
 20
-7054.14421158
 10
274.628726196
 20
-6941.92792014
 10
276.273970201
 20
-6829.71162876
 10
277.91921725
 20
-6717.49533745
 10
279.564467632
 20
-6605.27904621
 10
281.20972168
 20
-6493.06275506
 10
282.854979769
 20
-6380.84646399
 10
284.500242329
 20
-6268.63017303
 10
286.145509852
 20
-6156.41388218
 10
287.790782905
 20
-6044.19759145
 10
289.436062145
 20
-5931.98130086
 10
291.081348338
 20
-5819.76501043
 10
292.726642381
 20
-5707.54872018
 10
294.371945333
 20
-5595.33243013
 10
296.017258452
 20
-5483.1161403
 10
297.662583245
 20
-5370.89985074
 10
299.30792153
 20
-5258.68356149
 10
300.953275527
 20
-5146.46727258
 10
302.598647968
 20
-5034.2509841
 10
304.244042259
 20
-4922.0346961
 10
305.889462699
 20
-4809.81840869
 10
307.534914793
 20
-4697.602122
 10
309.180405709
 20
-4585.38583618
  0
LWPOLYLINE
  5
119
330
1F
100
AcDbEntity
  8
main_beam_width
100
AcDbPolyline
 90
100
 70
0
43
0.0
 10
-51.8346155171
 20
-15692.708703
 10
-48.4241275935
 20
-15580.5106055
 10
-45.0136397509
 20
-15468.3125079
 10
-41.6031519917
 20
-15356.1144103
 10
-38.1926643181
 20
-15243.9163127
 10
-34.7821767326
 20
-15131.7182152
 10
-31.3716892376
 20
-15019.5201176
 10
-27.9612018357
 20
-14907.32202
 10
-24.5507145295
 20
-14795.1239224
 10
-21.140227322
 20
-14682.9258248
 10
-17.7297402159
 20
-14570.7277272
 10
-14.3192532143
 20
-14458.5296296
 10
-10.9087663202
 20
-14346.331532
 10
-7.49827953707
 20
-14234.1334344
 10
-4.08779286812
 20
-14121.9353368
 10
-0.677306316935
 20
-14009.7372392
 10
2.73318011283
 20
-13897.5391416
 10
6.14366641733
 20
-13785.341044
 10
9.5541525926
 20
-13673.1429464
 10
12.9646386345
 20
-13560.9448488
 10
16.3751245386
 20
-13448.7467512
 10
19.7856103005
 20
-13336.5486536
 10
23.1960959153
 20
-13224.3505559
 10
26.6065813783
 20
-13112.1524583
 10
30.0170666841
 20
-12999.9543607
 10
33.4275518275
 20
-12887.756263
 10
36.8380368026
 20
-12775.5581654
 10
40.2485216037
 20
-12663.3600678
 10
43.6590062246
 20
-12551.1619701
 10
47.0694906586
 20
-12438.9638725
 10
50.4799748991
 20
-12326.7657748
 10
53.8904589388
 20
-12214.5676772
 10
57.3009427703
 20
-12102.3695795
 10
60.7114263857
 20
-11990.1714818
 10
64.1219097767
 20
-11877.9733841
 10
67.5323929345
 20
-11765.7752865
 10
70.9428758501
 20
-11653.5771888
 10
74.3533585137
 20
-11541.3790911
 10
77.7638409151
 20
-11429.1809934
 10
81.1743230437
 20
-11316.9828957
 10
84.5848048881
 20
-11204.784798
 10
87.9952864363
 20
-11092.5867003
 10
91.4057676756
 20
-10980.3886025
 10
94.8162485928
 20
-10868.1905048
 10
98.2267291736
 20
-10755.9924071
 10
101.637209403
 20
-10643.7943093
 10
105.047689265
 20
-10531.5962116
 10
108.458168743
 20
-10419.3981138
 10
111.868647819
 20
-10307.200016
 10
115.279126474
 20
-10195.0019183
 10
118.689604687
 20
-10082.8038205
 10
122.100082437
 20
-9970.60572266
 10
125.5105597
 20
-9858.40762485
 10
128.921036454
 20
-9746.20952703
 10
132.331512669
 20
-9634.01142919
 10
135.74198832
 20
-9521.81333134
 10
139.152463375
 20
-9409.61523348
 10
142.562937803
 20
-9297.4171356
 10
145.973411568
 20
-9185.21903771
 10
149.383884633
 20
-9073.0209398
 10
152.794356958
 20
-8960.82284188
 10
156.2048285
 20
-8848.62474394
 10
159.615299212
 20
-8736.42664598
 10
163.025769043
 20
-8624.228548
 10
166.436237938
 20
-8512.03045
 10
169.846705839
 20
-8399.83235197
 10
173.257172681
 20
-8287.63425393
 10
176.667638393
 20
-8175.43615585
 10
180.078102898
 20
-8063.23805775
 10
183.488566114
 20
-7951.03995962
 10
186.899027948
 20
-7838.84186146
 10
190.309488301
 20
-7726.64376327
 10
193.719947061
 20
-7614.44566504
 10
197.130404106
 20
-7502.24756677
 10
200.540859303
 20
-7390.04946846
 10
203.951312503
 20
-7277.85137011
 10
207.361763539
 20
-7165.65327171
 10
210.772212228
 20
-7053.45517325
 10
214.182658365
 20
-6941.25707474
 10
217.593101719
 20
-6829.05897616
 10
221.003542031
 20
-6716.86087751
 10
224.413979008
 20
-6604.66277879
 10
227.824412321
 20
-6492.46467999
 10
231.234841594
 20
-6380.2665811
 10
234.645266396
 20
-6268.0684821
 10
238.055686236
 20
-6155.870383
 10
241.466100547
 20
-6043.67228377
 10
244.876508671
 20
-5931.4741844
 10
248.286909844
 20
-5819.27608487
 10
251.697303167
 20
-5707.07798517
 10
255.107687583
 20
-5594.87988526
 10
258.518061833
 20
-5482.68178513
 10
261.928424411
 20
-5370.48368473
 10
265.338773498
 20
-5258.28558403
 10
268.749106876
 20
-5146.08748298
 10
272.159421811
 20
-5033.88938151
 10
275.5697149
 20
-4921.69127955
 10
278.979981842
 20
-4809.493177
 10
282.390217134
 20
-4697.29507373
 10
285.800413607
 20
-4585.0969696
  0
LWPOLYLINE
  5
11a
330
1F
100
AcDbEntity
  8
main_beam_width
100
AcDbPolyline
 90
100
 70
0
43
0.0
 10
146.30238649
 20
-15694.7987085
 10
147.947585918
 20
-15582.5824161
 10
149.592785428
 20
-15470.3661237
 10
151.237985021
 20
-15358.1498314
 10
152.883184699
 20
-15245.933539
 10
154.528384466
 20
-15133.7172466
 10
156.173584323
 20
-15021.5009542
 10
157.818784273
 20
-14909.2846618
 10
159.463984319
 20
-14797.0683695
 10
161.109184463
 20
-14684.8520771
 10
162.754384709
 20
-14572.6357847
 10
164.39958506
 20
-14460.4194924
 10
166.044785518
 20
-14348.2032
 10
167.689986087
 20
-14235.9869077
 10
169.33518677
 20
-14123.7706153
 10
170.980387571
 20
-14011.5543229
 10
172.625588494
 20
-13899.3380306
 10
174.270789541
 20
-13787.1217382
 10
175.915990718
 20
-13674.9054459
 10
177.561192029
 20
-13562.6891536
 10
179.206393477
 20
-13450.4728612
 10
180.851595067
 20
-13338.2565689
 10
182.496796805
 20
-13226.0402765
 10
184.141998694
 20
-13113.8239842
 10
185.787200741
 20
-13001.6076919
 10
187.43240295
 20
-12889.3913996
 10
189.077605327
 20
-12777.1751073
 10
190.722807879
 20
-12664.9588149
 10
192.368010611
 20
-12552.7425226
 10
194.013213529
 20
-12440.5262303
 10
195.658416641
 20
-12328.309938
 10
197.303619954
 20
-12216.0936457
 10
198.948823475
 20
-12103.8773534
 10
200.594027213
 20
-11991.6610611
 10
202.239231174
 20
-11879.4447689
 10
203.884435369
 20
-11767.2284766
 10
205.529639807
 20
-11655.0121843
 10
207.174844496
 20
-11542.795892
 10
208.820049448
 20
-11430.5795998
 10
210.465254672
 20
-11318.3633075
 10
212.110460181
 20
-11206.1470153
 10
213.755665986
 20
-11093.930723
 10
215.400872099
 20
-10981.7144308
 10
217.046078535
 20
-10869.4981386
 10
218.691285308
 20
-10757.2818464
 10
220.336492432
 20
-10645.0655541
 10
221.981699923
 20
-10532.8492619
 10
223.626907798
 20
-10420.6329697
 10
225.272116076
 20
-10308.4166776
 10
226.917324775
 20
-10196.2003854
 10
228.562533916
 20
-10083.9840932
 10
230.207743519
 20
-9971.76780106
 10
231.852953609
 20
-9859.55150892
 10
233.49816421
 20
-9747.33521678
 10
235.143375348
 20
-9635.11892466
 10
236.788587052
 20
-9522.90263255
 10
238.433799351
 20
-9410.68634046
 10
240.079012278
 20
-9298.47004838
 10
241.724225867
 20
-9186.25375631
 10
243.369440157
 20
-9074.03746426
 10
245.014655186
 20
-8961.82117223
 10
246.659870999
 20
-8849.60488021
 10
248.305087642
 20
-8737.38858821
 10
249.950305166
 20
-8625.17229624
 10
251.595523626
 20
-8512.95600428
 10
253.24074308
 20
-8400.73971235
 10
254.885963595
 20
-8288.52342044
 10
256.531185238
 20
-8176.30712855
 10
258.176408089
 20
-8064.0908367
 10
259.821632229
 20
-7951.87454487
 10
261.466857751
 20
-7839.65825307
 10
263.112084756
 20
-7727.44196131
 10
264.757313353
 20
-7615.22566958
 10
266.402543664
 20
-7503.00937789
 10
268.047775825
 20
-7390.79308624
 10
269.693009983
 20
-7278.57679464
 10
271.338246305
 20
-7166.36050308
 10
272.983484974
 20
-7054.14421158
 10
274.628726196
 20
-6941.92792014
 10
276.273970201
 20
-6829.71162876
 10
277.919217249
 20
-6717.49533745
 10
279.564467632
 20
-6605.27904621
 10
281.20972168
 20
-6493.06275506
 10
282.854979769
 20
-6380.84646399
 10
284.500242329
 20
-6268.63017303
 10
286.145509852
 20
-6156.41388218
 10
287.790782905
 20
-6044.19759145
 10
289.436062145
 20
-5931.98130086
 10
291.081348338
 20
-5819.76501043
 10
292.726642381
 20
-5707.54872018
 10
294.371945333
 20
-5595.33243013
 10
296.017258452
 20
-5483.1161403
 10
297.662583245
 20
-5370.89985074
 10
299.30792153
 20
-5258.68356149
 10
300.953275527
 20
-5146.46727258
 10
302.598647968
 20
-5034.2509841
 10
304.244042259
 20
-4922.0346961
 10
305.889462699
 20
-4809.81840869
 10
307.534914793
 20
-4697.602122
 10
309.180405709
 20
-4585.38583618
  0
LWPOLYLINE
  5
11b
330
1F
100
AcDbEntity
  8
main_beam_width
100
AcDbPolyline
 90
39
 70
0
43
0.0
 10
-103.056487195
 20
23221.9757285
 10
-99.0857270863
 20
102169.34415
 10
-95.1646569697
 20
181116.712571
 10
-91.3002597663
 20
260064.080992
 10
-87.5007578774
 20
339011.449413
 10
-83.7758612697
 20
417958.817834
 10
-80.1370626663
 20
496906.186255
 10
-76.5979833936
 20
575853.554676
 10
-73.174768712
 20
654800.923097
 10
-69.8865221153
 20
733748.291518
 10
-66.7557514031
 20
812695.659939
 10
-63.8087720484
 20
891643.02836
 10
-61.0759727043
 20
970590.396781
 10
-58.5917942229
 20
1049537.7652
 10
-56.3942168918
 20
1128485.13362
 10
-54.5235172177
 20
1207432.50204
 10
-53.0200937149
 20
1286379.87047
 10
-51.9213293018
 20
1365327.23889
 10
-51.257781036
 20
1444274.60731
 10
-51.049388698
 20
1523221.97573
 10
-51.3026624801
 20
1602169.34415
 10
-52.0097059547
 20
1681116.71257
 10
-53.1493973892
 20
1760064.08099
 10
-54.6903404047
 20
1839011.44941
 10
-56.5946973487
 20
1917958.81783
 10
-58.8219581251
 20
1996906.18625
 10
-61.3319904248
 20
2075853.55468
 10
-64.0871178443
 20
2154800.9231
 10
-67.053281654
 20
2233748.29152
 10
-70.2004953061
 20
2312695.65994
 10
-73.5028293129
 20
2391643.02836
 10
-76.938126702
 20
2470590.39678
 10
-80.4875920635
 20
2549537.7652
 10
-84.1353447642
 20
2628485.13362
 10
-87.8679875894
 20
2707432.50204
 10
-91.6742159686
 20
2786379.87047
 10
-95.5444771196
 20
2865327.23889
 10
-99.4706796522
 20
2944274.60731
 10
-103.445949796
 20
3023221.97573
  0
LWPOLYLINE
  5
11c
330
1F
100
AcDbEntity
  8
main_beam_width
100
AcDbPolyline
 90
39
 70
0
43
0.0
 10
87.8753730343
 20
23221.9757285
 10
83.9046129248
 20
102169.34415
 10
79.9835428079
 20
181116.712571
 10
76.119145604
 20
260064.080992
 10
72.3196437148
 20
339011.449413
 10
68.5947471066
 20
417958.817834
 10
64.9559485029
 20
496906.186255
 10
61.4168692297
 20
575853.554676
 10
57.9936545477
 20
654800.923097
 10
54.7054079506
 20
733748.291518
 10
51.574637238
 20
812695.659939
 10
48.6276578829
 20
891643.02836
 10
45.8948585384
 20
970590.396781
 10
43.4106800565
 20
1049537.7652
 10
41.2131027251
 20
1128485.13362
 10
39.3424030505
 20
1207432.50204
 10
37.8389795474
 20
1286379.87047
 10
36.7402151338
 20
1365327.23889
 10
36.0766668676
 20
1444274.60731
 10
35.8682745292
 20
1523221.97573
 10
36.1215483109
 20
1602169.34415
 10
36.828591785
 20
1681116.71257
 10
37.9682832192
 20
1760064.08099
 10
39.5092262342
 20
1839011.44941
 10
41.4135831778
 20
1917958.81783
 10
43.6408439538
 20
1996906.18625
 10
46.1508762531
 20
2075853.55468
 10
48.9060036722
 20
2154800.9231
 10
51.8721674815
 20
2233748.29152
 10
55.0193811331
 20
2312695.65994
 10
58.3217151396
 20
2391643.02836
 10
61.7570125283
 20
2470590.39678
 10
65.3064778893
 20
2549537.7652
 10
68.9542305896
 20
2628485.13362
 10
72.6868734144
 20
2707432.50204
 10
76.4931017932
 20
2786379.87047
 10
80.3633629438
 20
2865327.23889
 10
84.289565476
 20
2944274.60731
 10
88.2648356196
 20
3023221.97573
  0
LWPOLYLINE
  5
11d
330
1F
100
AcDbEntity
  8
main_beam_width
100
AcDbPolyline
 90
10
 70
0
43
0.0
 10
87.8829451963
 20
23071.9372545
 10
88.9486405201
 20
20519.2144881
 10
90.0143811673
 20
17966.4917216
 10
91.0801668183
 20
15413.7689552
 10
92.1459971566
 20
12861.0461887
 10
93.2118718685
 20
10308.3234223
 10
94.2777906434
 20
7755.60065595
 10
95.3437531732
 20
5202.87788957
 10
96.4097591529
 20
2650.1551232
 10
97.47580828
 20
97.4323568553
  0
LWPOLYLINE
  5
11e
330
1F
100
AcDbEntity
  8
main_beam_width
100
AcDbPolyline
 90
10
 70
0
43
0.0
 10
-103.064046428
 20
23072.0205709
 10
-102.444867549
 20
20497.6349953
 10
-101.825734763
 20
17923.2494198
 10
-101.206647742
 20
15348.8638442
 10
-100.587606162
 20
12774.4782686
 10
-99.9686097012
 20
10200.092693
 10
-99.3496580409
 20
7625.70711735
 10
-98.7307508656
 20
5051.32154172
 10
-98.1118878623
 20
2476.93596606
 10
-97.4930687212
 20
-97.4496096024
  0
LWPOLYLINE
  5
11f
330
1F
100
AcDbEntity
  8
main_beam_width
100
AcDbPolyline
 90
100
 70
0
43
0.0
 10
-4700.49853857
 20
256.589220096
 10
-4812.2355998
 20
253.121857042
 10
-4923.97266019
 20
249.654458434
 10
-5035.70971992
 20
246.187030652
 10
-5147.44677908
 20
242.719578639
 10
-5259.18383777
 20
239.252106278
 10
-5370.92089606
 20
235.784616667
 10
-5482.65795401
 20
232.317112305
 10
-5594.39501166
 20
228.849595229
 10
-5706.13206906
 20
225.382067119
 10
-5817.86912623
 20
221.91452937
 10
-5929.60618321
 20
218.446983155
 10
-6041.34324002
 20
214.979429459
 10
-6153.08029667
 20
211.511869124
 10
-6264.81735318
 20
208.044302868
 10
-6376.55440957
 20
204.576731309
 10
-6488.29146585
 20
201.109154985
 10
-6600.02852203
 20
197.641574359
 10
-6711.76557812
 20
194.173989838
 10
-6823.50263413
 20
190.706401781
 10
-6935.23969006
 20
187.238810502
 10
-7046.97674593
 20
183.771216279
 10
-7158.71380173
 20
180.30361936
 10
-7270.45085748
 20
176.836019964
 10
-7382.18791317
 20
173.36841829
 10
-7493.92496881
 20
169.900814513
 10
-7605.66202441
 20
166.433208793
 10
-7717.39907997
 20
162.965601272
 10
-7829.13613549
 20
159.497992081
 10
-7940.87319097
 20
156.030381336
 10
-8052.61024642
 20
152.562769144
 10
-8164.34730184
 20
149.095155602
 10
-8276.08435723
 20
145.627540799
 10
-8387.82141259
 20
142.159924816
 10
-8499.55846792
 20
138.692307728
 10
-8611.29552323
 20
135.224689601
 10
-8723.03257852
 20
131.757070499
 10
-8834.76963379
 20
128.28945048
 10
-8946.50668904
 20
124.821829596
 10
-9058.24374427
 20
121.354207897
 10
-9169.98079948
 20
117.886585429
 10
-9281.71785467
 20
114.418962233
 10
-9393.45490985
 20
110.951338349
 10
-9505.19196501
 20
107.483713814
 10
-9616.92902016
 20
104.01608866
 10
-9728.6660753
 20
100.54846292
 10
-9840.40313042
 20
97.0808366238
 10
-9952.14018553
 20
93.6132097978
 10
-10063.8772406
 20
90.1455824682
 10
-10175.6142957
 20
86.6779546591
 10
-10287.3513508
 20
83.2103263931
 10
-10399.0884059
 20
79.7426976913
 10
-10510.8254609
 20
76.2750685737
 10
-10622.562516
 20
72.807439059
 10
-10734.299571
 20
69.3398091647
 10
-10846.036626
 20
65.8721789074
 10
-10957.7736811
 20
62.4045483028
 10
-11069.5107361
 20
58.9369173655
 10
-11181.2477911
 20
55.4692861096
 10
-11292.9848461
 20
52.0016545481
 10
-11404.7219011
 20
48.5340226934
 10
-11516.4589561
 20
45.0663905575
 10
-11628.196011
 20
41.5987581513
 10
-11739.933066
 20
38.1311254855
 10
-11851.670121
 20
34.6634925702
 10
-11963.4071759
 20
31.1958594147
 10
-12075.1442309
 20
27.7282260281
 10
-12186.8812858
 20
24.2605924191
 10
-12298.6183408
 20
20.7929585958
 10
-12410.3553957
 20
17.325324566
 10
-12522.0924507
 20
13.8576903371
 10
-12633.8295056
 20
10.3900559161
 10
-12745.5665605
 20
6.92242130971
 10
-12857.3036155
 20
3.45478652442
 10
-12969.0406704
 20
-0.0128484336874
 10
-13080.7777253
 20
-3.48048355876
 10
-13192.5147802
 20
-6.94811884522
 10
-13304.2518351
 20
-10.4157542877
 10
-13415.98889
 20
-13.8833898812
 10
-13527.7259449
 20
-17.3510256207
 10
-13639.4629998
 20
-20.8186615016
 10
-13751.2000547
 20
-24.2862975194
 10
-13862.9371096
 20
-27.7539336698
 10
-13974.6741645
 20
-31.2215699487
 10
-14086.4112194
 20
-34.6892063522
 10
-14198.1482743
 20
-38.1568428764
 10
-14309.8853292
 20
-41.6244795177
 10
-14421.6223841
 20
-45.0921162727
 10
-14533.3594389
 20
-48.559753138
 10
-14645.0964938
 20
-52.0273901104
 10
-14756.8335487
 20
-55.4950271867
 10
-14868.5706035
 20
-58.9626643641
 10
-14980.3076584
 20
-62.4303016395
 10
-15092.0447133
 20
-65.8979390104
 10
-15203.7817681
 20
-69.3655764739
 10
-15315.518823
 20
-72.8332140276
 10
-15427.2558779
 20
-76.300851669
 10
-15538.9929327
 20
-79.7684893957
 10
-15650.7299876
 20
-83.2361272054
 10
-15762.4670424
 20
-86.703765096
  0
LWPOLYLINE
  5
120
330
1F
100
AcDbEntity
  8
main_beam_width
100
AcDbPolyline
 90
100
 70
0
43
0.0
 10
-4700.81152046
 20
280.652438915
 10
-4812.56778871
 20
278.939784627
 10
-4924.32405778
 20
277.227165896
 10
-5036.08032753
 20
275.514576342
 10
-5147.83659784
 20
273.802011023
 10
-5259.59286863
 20
272.089466053
 10
-5371.34913981
 20
270.376938336
 10
-5483.10541133
 20
268.664425372
 10
-5594.86168315
 20
266.951925123
 10
-5706.61795523
 20
265.23943591
 10
-5818.37422753
 20
263.526956335
 10
-5930.13050002
 20
261.81448523
 10
-6041.88677269
 20
260.102021606
 10
-6153.64304551
 20
258.389564622
 10
-6265.39931847
 20
256.67711356
 10
-6377.15559155
 20
254.964667801
 10
-6488.91186475
 20
253.252226809
 10
-6600.66813804
 20
251.539790119
 10
-6712.42441142
 20
249.827357323
 10
-6824.18068488
 20
248.114928065
 10
-6935.93695842
 20
246.40250203
 10
-7047.69323203
 20
244.690078939
 10
-7159.4495057
 20
242.977658544
 10
-7271.20577943
 20
241.265240626
 10
-7382.96205321
 20
239.552824988
 10
-7494.71832704
 20
237.840411452
 10
-7606.47460091
 20
236.12799986
 10
-7718.23087483
 20
234.415590069
 10
-7829.98714878
 20
232.703181949
 10
-7941.74342277
 20
230.990775382
 10
-8053.4996968
 20
229.278370263
 10
-8165.25597085
 20
227.565966493
 10
-8277.01224494
 20
225.853563985
 10
-8388.76851905
 20
224.141162657
 10
-8500.52479319
 20
222.428762436
 10
-8612.28106735
 20
220.716363252
 10
-8724.03734153
 20
219.003965044
 10
-8835.79361574
 20
217.291567753
 10
-8947.54988996
 20
215.579171327
 10
-9059.30616421
 20
213.866775716
 10
-9171.06243847
 20
212.154380875
 10
-9282.81871275
 20
210.441986761
 10
-9394.57498704
 20
208.729593336
 10
-9506.33126135
 20
207.017200562
 10
-9618.08753568
 20
205.304808406
 10
-9729.84381002
 20
203.592416837
 10
-9841.60008437
 20
201.880025825
 10
-9953.35635873
 20
200.167635342
 10
-10065.1126331
 20
198.455245363
 10
-10176.8689075
 20
196.742855863
 10
-10288.6251819
 20
195.03046682
 10
-10400.3814563
 20
193.318078214
 10
-10512.1377307
 20
191.605690023
 10
-10623.8940051
 20
189.893302229
 10
-10735.6502796
 20
188.180914815
 10
-10847.406554
 20
186.468527764
 10
-10959.1628285
 20
184.75614106
 10
-11070.9191029
 20
183.04375469
 10
-11182.6753774
 20
181.331368637
 10
-11294.4316519
 20
179.618982891
 10
-11406.1879263
 20
177.906597437
 10
-11517.9442008
 20
176.194212265
 10
-11629.7004753
 20
174.481827364
 10
-11741.4567498
 20
172.769442722
 10
-11853.2130243
 20
171.057058329
 10
-11964.9692988
 20
169.344674177
 10
-12076.7255734
 20
167.632290256
 10
-12188.4818479
 20
165.919906557
 10
-12300.2381224
 20
164.207523073
 10
-12411.9943969
 20
162.495139795
 10
-12523.7506715
 20
160.782756716
 10
-12635.506946
 20
159.07037383
 10
-12747.2632205
 20
157.357991129
 10
-12859.0194951
 20
155.645608606
 10
-12970.7757696
 20
153.933226257
 10
-13082.5320442
 20
152.220844075
 10
-13194.2883188
 20
150.508462054
 10
-13306.0445933
 20
148.796080189
 10
-13417.8008679
 20
147.083698475
 10
-13529.5571425
 20
145.371316907
 10
-13641.313417
 20
143.658935481
 10
-13753.0696916
 20
141.946554191
 10
-13864.8259662
 20
140.234173035
 10
-13976.5822408
 20
138.521792006
 10
-14088.3385154
 20
136.809411102
 10
-14200.0947899
 20
135.09703032
 10
-14311.8510645
 20
133.384649654
 10
-14423.6073391
 20
131.672269102
 10
-14535.3636137
 20
129.95988866
 10
-14647.1198883
 20
128.247508325
 10
-14758.8761629
 20
126.535128094
 10
-14870.6324375
 20
124.822747965
 10
-14982.3887121
 20
123.110367933
 10
-15094.1449867
 20
121.397987997
 10
-15205.9012614
 20
119.685608153
 10
-15317.657536
 20
117.9732284
 10
-15429.4138106
 20
116.260848734
 10
-15541.1700852
 20
114.548469154
 10
-15652.9263598
 20
112.836089657
 10
-15764.6826344
 20
111.123710241
  0
LWPOLYLINE
  5
121
330
1F
100
AcDbEntity
  8
main_beam_width
100
AcDbPolyline
 90
10
 70
0
43
0.0
 10
-19562.5444306
 20
238.466855013
 10
-19551.3885614
 20
238.498229237
 10
-19540.2326922
 20
238.529603668
 10
-19529.076823
 20
238.560978307
 10
-19517.9209539
 20
238.592353152
 10
-19506.7650847
 20
238.623728204
 10
-19495.6092155
 20
238.655103464
 10
-19484.4533463
 20
238.686478931
 10
-19473.2974772
 20
238.717854605
 10
-19462.141608
 20
238.749230486
  0
LWPOLYLINE
  5
122
330
1F
100
AcDbEntity
  8
main_beam_width
100
AcDbPolyline
 90
10
 70
0
43
0.0
 10
-19561.6355602
 20
214.399289737
 10
-19550.5730862
 20
214.430985878
 10
-19539.5106121
 20
214.462681815
 10
-19528.4481381
 20
214.494377549
 10
-19517.385664
 20
214.526073079
 10
-19506.32319
 20
214.557768405
 10
-19495.2607159
 20
214.589463528
 10
-19484.1982419
 20
214.621158447
 10
-19473.1357679
 20
214.652853162
 10
-19462.0732938
 20
214.684547673
  0
LWPOLYLINE
  5
123
330
1F
100
AcDbEntity
  8
main_beam_width
100
AcDbPolyline
 90
10
 70
0
43
0.0
 10
309.181051582
 20
-4585.38584163
 10
305.552006065
 20
-6223.28489504
 10
301.933326939
 20
-7861.18397109
 10
298.325121069
 20
-9499.08307003
 10
294.727468111
 20
-11136.982192
 10
291.140419444
 20
-12774.8813372
 10
287.56399747
 20
-14412.7805056
 10
283.998195307
 20
-16050.6796972
 10
280.442976884
 20
-17688.5789119
 10
276.89827743
 20
-19326.4781496
  0
LWPOLYLINE
  5
124
330
1F
100
AcDbEntity
  8
main_beam_width
100
AcDbPolyline
 90
10
 70
0
43
0.0
 10
285.800698268
 20
-4585.09697423
 10
282.271853124
 20
-6223.02266655
 10
278.732641271
 20
-7860.94833622
 10
275.182955836
 20
-9498.87398301
 10
271.622717153
 20
-11136.7996067
 10
268.051873841
 20
-12774.7252073
 10
264.470403493
 20
-14412.6507846
 10
260.87831299
 20
-16050.5763387
 10
257.275638406
 20
-17688.5018698
 10
253.662444511
 20
-19326.4273778
  0
LWPOLYLINE
  5
125
330
1F
100
AcDbEntity
  8
main_beam_width
100
AcDbPolyline
 90
39
 70
0
43
0.0
 10
26507.1128381
 20
78.6268733854
 10
105454.481259
 20
74.6319069881
 10
184401.84968
 20
70.6874271306
 10
263349.218101
 20
66.8006163753
 10
342296.586522
 20
62.9799484727
 10
421243.954943
 20
59.2354501114
 10
500191.323364
 20
55.5790129528
 10
579138.691785
 20
52.0247597013
 10
658086.060207
 20
48.5894627118
 10
737033.428628
 20
45.293003186
 10
815980.797049
 20
42.158840323
 10
894928.16547
 20
39.2144292014
 10
973875.533891
 20
36.4914806995
 10
1052822.90231
 20
34.0258976058
 10
1131770.27073
 20
31.8571602292
 10
1210717.63915
 20
30.0269041338
 10
1289665.00757
 20
28.5764881426
 10
1368612.376
 20
27.5435562838
 10
1447559.74442
 20
26.957969718
 10
1526507.11284
 20
26.8379160489
 10
1605454.48126
 20
27.1872438421
 10
1684401.84968
 20
27.9948694714
 10
1763349.2181
 20
29.2364577413
 10
1842296.58652
 20
30.8778174973
 10
1921243.95494
 20
32.8790031571
 10
2000191.32336
 20
35.1981495415
 10
2079138.69179
 20
37.7944379608
 10
2158086.06021
 20
40.6300175575
 10
2237033.42863
 20
43.6710006587
 10
2315980.79705
 20
46.8877762066
 10
2394928.16547
 20
50.2548903881
 10
2473875.53389
 20
53.7506925988
 10
2552822.90231
 20
57.3568823238
 10
2631770.27073
 20
61.0580394306
 10
2710717.63915
 20
64.8411824055
 10
2789665.00757
 20
68.6953747701
 10
2868612.376
 20
72.6113856902
 10
2947559.74442
 20
76.5814032117
 10
3026507.11284
 20
80.5987950123
  0
LWPOLYLINE
  5
126
330
1F
100
AcDbEntity
  8
main_beam_width
100
AcDbPolyline
 90
39
 70
0
43
0.0
 10
26507.1128381
 20
-111.388330353
 10
105454.481259
 20
-107.393363955
 10
184401.84968
 20
-103.448884098
 10
263349.218101
 20
-99.5620733425
 10
342296.586522
 20
-95.7414054399
 10
421243.954943
 20
-91.9969070786
 10
500191.323364
 20
-88.34046992
 10
579138.691785
 20
-84.7862166685
 10
658086.060207
 20
-81.350919679
 10
737033.428628
 20
-78.0544601532
 10
815980.797049
 20
-74.9202972902
 10
894928.16547
 20
-71.9758861686
 10
973875.533891
 20
-69.2529376667
 10
1052822.90231
 20
-66.787354573
 10
1131770.27073
 20
-64.6186171964
 10
1210717.63915
 20
-62.788361101
 10
1289665.00757
 20
-61.3379451098
 10
1368612.376
 20
-60.305013251
 10
1447559.74442
 20
-59.7194266852
 10
1526507.11284
 20
-59.5993730161
 10
1605454.48126
 20
-59.9487008093
 10
1684401.84968
 20
-60.7563264386
 10
1763349.2181
 20
-61.9979147085
 10
1842296.58652
 20
-63.6392744645
 10
1921243.95494
 20
-65.6404601243
 10
2000191.32336
 20
-67.9596065087
 10
2079138.69179
 20
-70.555894928
 10
2158086.06021
 20
-73.3914745247
 10
2237033.42863
 20
-76.4324576259
 10
2315980.79705
 20
-79.6492331738
 10
2394928.16547
 20
-83.0163473553
 10
2473875.53389
 20
-86.512149566
 10
2552822.90231
 20
-90.118339291
 10
2631770.27073
 20
-93.8194963978
 10
2710717.63915
 20
-97.6026393727
 10
2789665.00757
 20
-101.456831737
 10
2868612.376
 20
-105.372842657
 10
2947559.74442
 20
-109.342860179
 10
3026507.11284
 20
-113.360251979
  0
LWPOLYLINE
  5
127
330
1F
100
AcDbEntity
  8
main_beam_width
100
AcDbPolyline
 90
10
 70
0
43
0.0
 10
276.89827743
 20
-19326.4781496
 10
276.874372606
 20
-19337.542252
 10
276.850468009
 20
-19348.6063544
 10
276.826563637
 20
-19359.6704568
 10
276.802659493
 20
-19370.7345592
 10
276.778755574
 20
-19381.7986616
 10
276.754851882
 20
-19392.862764
 10
276.730948416
 20
-19403.9268664
 10
276.707045177
 20
-19414.9909688
 10
276.683142164
 20
-19426.0550712
  0
LWPOLYLINE
  5
128
330
1F
100
AcDbEntity
  8
main_beam_width
100
AcDbPolyline
 90
10
 70
0
43
0.0
 10
253.662444511
 20
-19326.4273778
 10
253.637798502
 20
-19337.5816551
 10
253.613152263
 20
-19348.7359323
 10
253.588505794
 20
-19359.8902096
 10
253.563859095
 20
-19371.0444869
 10
253.539212166
 20
-19382.1987642
 10
253.514565007
 20
-19393.3530415
 10
253.489917617
 20
-19404.5073188
 10
253.465269998
 20
-19415.6615961
 10
253.440622149
 20
-19426.8158733
  0
LWPOLYLINE
  5
129
330
1F
100
AcDbEntity
  8
main_beam_width
100
AcDbPolyline
 90
10
 70
0
43
0.0
 10
276.898277431
 20
-19326.4781496
 10
276.874372607
 20
-19337.542252
 10
276.850468009
 20
-19348.6063544
 10
276.826563638
 20
-19359.6704568
 10
276.802659493
 20
-19370.7345592
 10
276.778755575
 20
-19381.7986616
 10
276.754851883
 20
-19392.862764
 10
276.730948417
 20
-19403.9268664
 10
276.707045177
 20
-19414.9909688
 10
276.683142164
 20
-19426.0550712
  0
LWPOLYLINE
  5
12a
330
1F
100
AcDbEntity
  8
main_beam_width
100
AcDbPolyline
 90
10
 70
0
43
0.0
 10
253.662444511
 20
-19326.4273778
 10
253.637798503
 20
-19337.5816551
 10
253.613152264
 20
-19348.7359323
 10
253.588505795
 20
-19359.8902096
 10
253.563859096
 20
-19371.0444869
 10
253.539212166
 20
-19382.1987642
 10
253.514565007
 20
-19393.3530415
 10
253.489917618
 20
-19404.5073188
 10
253.465269999
 20
-19415.6615961
 10
253.440622149
 20
-19426.8158733
  0
LWPOLYLINE
  5
12b
330
1F
100
AcDbEntity
  8
main_beam_width
100
AcDbPolyline
 90
10
 70
0
43
0.0
 10
-103.064050792
 20
23072.0205709
 10
-103.06321039
 20
23088.682255
 10
-103.062369988
 20
23105.3439392
 10
-103.061529587
 20
23122.0056234
 10
-103.060689187
 20
23138.6673076
 10
-103.059848787
 20
23155.3289918
 10
-103.059008388
 20
23171.9906759
 10
-103.05816799
 20
23188.6523601
 10
-103.057327592
 20
23205.3140443
 10
-103.056487195
 20
23221.9757285
  0
LWPOLYLINE
  5
12c
330
1F
100
AcDbEntity
  8
main_beam_width
100
AcDbPolyline
 90
10
 70
0
43
0.0
 10
87.8829408331
 20
23071.9372545
 10
87.882099964
 20
23088.6081961
 10
87.8812590956
 20
23105.2791376
 10
87.8804182278
 20
23121.9500792
 10
87.8795773606
 20
23138.6210207
 10
87.8787364941
 20
23155.2919623
 10
87.8778956282
 20
23171.9629038
 10
87.877054763
 20
23188.6338454
 10
87.8762138983
 20
23205.3047869
 10
87.8753730343
 20
23221.9757285
  0
LWPOLYLINE
  5
12d
330
1F
100
AcDbEntity
  8
main_beam_width
100
AcDbPolyline
 90
10
 70
0
43
0.0
 10
26507.1128381
 20
-111.388330353
 10
26490.4419188
 20
-111.389155489
 10
26473.7709995
 20
-111.389980626
 10
26457.1000801
 20
-111.390805764
 10
26440.4291608
 20
-111.391630902
 10
26423.7582415
 20
-111.392456041
 10
26407.0873222
 20
-111.393281181
 10
26390.4164028
 20
-111.394106321
 10
26373.7454835
 20
-111.394931462
 10
26357.0745642
 20
-111.395756603
  0
LWPOLYLINE
  5
12e
330
1F
100
AcDbEntity
  8
main_beam_width
100
AcDbPolyline
 90
10
 70
0
43
0.0
 10
26507.1128381
 20
78.6268733854
 10
26490.4511317
 20
78.6276980657
 10
26473.7894253
 20
78.6285227468
 10
26457.1277189
 20
78.6293474284
 10
26440.4660125
 20
78.6301721108
 10
26423.8043061
 20
78.6309967937
 10
26407.1425997
 20
78.6318214773
 10
26390.4808933
 20
78.6326461616
 10
26373.8191868
 20
78.6334708464
 10
26357.1574804
 20
78.634295532
  0
LWPOLYLINE
  5
12f
330
1F
100
AcDbEntity
  8
main_beam_width
100
AcDbPolyline
 90
10
 70
0
43
0.0
 10
309.181051582
 20
-4585.38584163
 10
305.552006065
 20
-6223.28489504
 10
301.933326939
 20
-7861.18397109
 10
298.325121069
 20
-9499.08307003
 10
294.727468111
 20
-11136.982192
 10
291.140419444
 20
-12774.8813372
 10
287.56399747
 20
-14412.7805056
 10
283.998195308
 20
-16050.6796972
 10
280.442976884
 20
-17688.5789119
 10
276.898277431
 20
-19326.4781496
  0
LWPOLYLINE
  5
130
330
1F
100
AcDbEntity
  8
main_beam_width
100
AcDbPolyline
 90
10
 70
0
43
0.0
 10
285.800698268
 20
-4585.09697423
 10
282.271853125
 20
-6223.02266655
 10
278.732641272
 20
-7860.94833622
 10
275.182955836
 20
-9498.87398301
 10
271.622717154
 20
-11136.7996067
 10
268.051873841
 20
-12774.7252073
 10
264.470403493
 20
-14412.6507846
 10
260.878312991
 20
-16050.5763387
 10
257.275638406
 20
-17688.5018698
 10
253.662444511
 20
-19326.4273778
  0
LWPOLYLINE
  5
131
330
1F
100
AcDbEntity
  8
main_beam_width
100
AcDbPolyline
 90
10
 70
0
43
0.0
 10
26357.1574805
 20
78.6344480264
 10
26373.8191869
 20
78.6336063971
 10
26390.4808933
 20
78.6327647683
 10
26407.1425997
 20
78.6319231403
 10
26423.8043061
 20
78.6310815129
 10
26440.4660125
 20
78.6302398861
 10
26457.1277189
 20
78.6293982599
 10
26473.7894253
 20
78.6285566344
 10
26490.4511317
 20
78.6277150096
 10
26507.1128381
 20
78.6268733854
  0
LWPOLYLINE
  5
132
330
1F
100
AcDbEntity
  8
main_beam_width
100
AcDbPolyline
 90
10
 70
0
43
0.0
 10
26357.0745641
 20
-111.395909182
 10
26373.7454834
 20
-111.395067087
 10
26390.4164028
 20
-111.394224993
 10
26407.0873221
 20
-111.3933829
 10
26423.7582414
 20
-111.392540807
 10
26440.4291608
 20
-111.391698715
 10
26457.1000801
 20
-111.390856623
 10
26473.7709994
 20
-111.390014532
 10
26490.4419188
 20
-111.389172442
 10
26507.1128381
 20
-111.388330353
  0
LWPOLYLINE
  5
133
330
1F
100
AcDbEntity
  8
main_beam_width
100
AcDbPolyline
 90
10
 70
0
43
0.0
 10
97.4817413926
 20
97.4382873231
 10
100.260462248
 20
87.6273632617
 10
103.039183103
 20
77.8164392003
 10
105.817903959
 20
68.0055151389
 10
108.596624815
 20
58.1945910776
 10
111.375345671
 20
48.3836670163
 10
114.154066527
 20
38.5727429551
 10
116.932787383
 20
28.761818894
 10
119.71150824
 20
18.9508948328
 10
122.490229096
 20
9.13997077176
  0
LWPOLYLINE
  5
134
330
1F
100
AcDbEntity
  8
main_beam_width
100
AcDbPolyline
 90
10
 70
0
43
0.0
 10
-97.4871341735
 20
-97.4436777001
 10
-94.7225654184
 20
-107.208324212
 10
-91.9579966635
 20
-116.972970724
 10
-89.1934279087
 20
-126.737617237
 10
-86.4288591542
 20
-136.502263749
 10
-83.6642903997
 20
-146.266910261
 10
-80.8997216455
 20
-156.031556774
 10
-78.1351528914
 20
-165.796203286
 10
-75.3705841375
 20
-175.560849799
 10
-72.6060153837
 20
-185.325496311
  0
LWPOLYLINE
  5
135
330
1F
100
AcDbEntity
  8
main_beam_width
100
AcDbPolyline
 90
10
 70
0
43
0.0
 10
-20562.4631413
 20
251.375635242
 10
-20451.3610646
 20
249.941155735
 10
-20340.2589873
 20
248.506719105
 10
-20229.1569095
 20
247.072325399
 10
-20118.0548311
 20
245.637974667
 10
-20006.9527522
 20
244.203666956
 10
-19895.8506728
 20
242.769402315
 10
-19784.7485927
 20
241.335180791
 10
-19673.6465122
 20
239.90100243
 10
-19562.544431
 20
238.46686728
  0
LWPOLYLINE
  5
136
330
1F
100
AcDbEntity
  8
main_beam_width
100
AcDbPolyline
 90
10
 70
0
43
0.0
 10
-20561.5512415
 20
227.227848683
 10
-20450.4494969
 20
225.802626563
 10
-20339.347753
 20
224.377361567
 10
-20228.2460095
 20
222.952053647
 10
-20117.1442667
 20
221.526702752
 10
-20006.0425244
 20
220.101308836
 10
-19894.9407826
 20
218.67587185
 10
-19783.8390414
 20
217.250391747
 10
-19672.7373008
 20
215.82486848
 10
-19561.6355607
 20
214.399302003
  0
LWPOLYLINE
  5
137
330
1F
100
AcDbEntity
  8
main_beam_width
100
AcDbPolyline
 90
10
 70
0
43
0.0
 10
97.4817413926
 20
97.4382873232
 10
100.260462248
 20
87.6273632617
 10
103.039183103
 20
77.8164392003
 10
105.817903959
 20
68.005515139
 10
108.596624815
 20
58.1945910776
 10
111.375345671
 20
48.3836670164
 10
114.154066527
 20
38.5727429552
 10
116.932787383
 20
28.761818894
 10
119.71150824
 20
18.9508948329
 10
122.490229096
 20
9.13997077179
  0
LWPOLYLINE
  5
138
330
1F
100
AcDbEntity
  8
main_beam_width
100
AcDbPolyline
 90
10
 70
0
43
0.0
 10
-97.4871341734
 20
-97.4436777
 10
-94.7225654184
 20
-107.208324212
 10
-91.9579966634
 20
-116.972970724
 10
-89.1934279087
 20
-126.737617237
 10
-86.4288591541
 20
-136.502263749
 10
-83.6642903997
 20
-146.266910261
 10
-80.8997216455
 20
-156.031556774
 10
-78.1351528914
 20
-165.796203286
 10
-75.3705841375
 20
-175.560849799
 10
-72.6060153837
 20
-185.325496311
  0
LWPOLYLINE
  5
139
330
1F
100
AcDbEntity
  8
main_beam_width
100
AcDbPolyline
 90
10
 70
0
43
0.0
 10
-9.47928805574
 20
-122.4028678
 10
-19.2579376242
 20
-119.629624455
 10
-29.0365871927
 20
-116.85638111
 10
-38.8152367612
 20
-114.083137765
 10
-48.5938863298
 20
-111.309894421
 10
-58.3725358984
 20
-108.536651076
 10
-68.1511854671
 20
-105.763407732
 10
-77.9298350358
 20
-102.990164388
 10
-87.7084846046
 20
-100.216921044
 10
-97.4871341734
 20
-97.4436777
  0
LWPOLYLINE
  5
13a
330
1F
100
AcDbEntity
  8
main_beam_width
100
AcDbPolyline
 90
10
 70
0
43
0.0
 10
185.906646443
 20
72.351352687
 10
176.081656993
 20
75.1387898681
 10
166.256667542
 20
77.9262270494
 10
156.431678092
 20
80.7136642309
 10
146.606688642
 20
83.5011014125
 10
136.781699192
 20
86.2885385943
 10
126.956709742
 20
89.0759757763
 10
117.131720292
 20
91.8634129584
 10
107.306730842
 20
94.6508501407
 10
97.4817413926
 20
97.4382873232
  0
LWPOLYLINE
  5
13b
330
1F
100
AcDbEntity
  8
main_beam_width
100
AcDbPolyline
 90
10
 70
0
43
0.0
 10
122.484340904
 20
9.13410161755
 10
125.131406355
 20
-1735.7473264
 10
127.778491627
 20
-3480.6287544
 10
130.425596626
 20
-5225.51018236
 10
133.072721259
 20
-6970.3916103
 10
135.719865434
 20
-8715.27303821
 10
138.367029058
 20
-10460.1544661
 10
141.014212042
 20
-12205.0358939
 10
143.661414293
 20
-13949.9173218
 10
146.308635722
 20
-15694.7987496
  0
LWPOLYLINE
  5
13c
330
1F
100
AcDbEntity
  8
main_beam_width
100
AcDbPolyline
 90
10
 70
0
43
0.0
 10
-72.6119049913
 20
-185.331366877
 10
-70.3028867911
 20
-1908.37329815
 10
-67.9938879096
 20
-3631.41522945
 10
-65.6849082566
 20
-5354.45716078
 10
-63.3759477427
 20
-7077.49909214
 10
-61.0670062789
 20
-8800.54102352
 10
-58.7580837769
 20
-10523.5829549
 10
-56.4491801489
 20
-12246.6248864
 10
-54.1402953073
 20
-13969.6668178
 10
-51.8314291655
 20
-15692.7087493
  0
LWPOLYLINE
  5
13d
330
1F
100
AcDbEntity
  8
main_beam_width
100
AcDbPolyline
 90
10
 70
0
43
0.0
 10
-97.4930687212
 20
-97.4496096024
 10
-98.1118878623
 20
2476.93596606
 10
-98.7307508656
 20
5051.32154172
 10
-99.3496580409
 20
7625.70711735
 10
-99.9686097012
 20
10200.092693
 10
-100.587606162
 20
12774.4782686
 10
-101.206647742
 20
15348.8638442
 10
-101.825734763
 20
17923.2494198
 10
-102.444867549
 20
20497.6349953
 10
-103.064046428
 20
23072.0205709
  0
LWPOLYLINE
  5
13e
330
1F
100
AcDbEntity
  8
main_beam_width
100
AcDbPolyline
 90
10
 70
0
43
0.0
 10
97.47580828
 20
97.4323568553
 10
96.4097591529
 20
2650.1551232
 10
95.3437531732
 20
5202.87788957
 10
94.2777906434
 20
7755.60065595
 10
93.2118718686
 20
10308.3234223
 10
92.1459971566
 20
12861.0461887
 10
91.0801668183
 20
15413.7689552
 10
90.0143811673
 20
17966.4917216
 10
88.9486405201
 20
20519.2144881
 10
87.8829451963
 20
23071.9372545
  0
LWPOLYLINE
  5
13f
330
1F
100
AcDbEntity
  8
main_beam_width
100
AcDbPolyline
 90
10
 70
0
43
0.0
 10
-15764.6826794
 20
111.129936574
 10
-14002.2206253
 20
109.607903754
 10
-12239.7585712
 20
108.085890592
 10
-10477.296517
 20
106.563897183
 10
-8714.83446283
 20
105.041923621
 10
-6952.37240864
 20
103.519970001
 10
-5189.91035443
 20
101.998036418
 10
-3427.44830021
 20
100.476122968
 10
-1664.98624597
 20
98.9542297483
 10
97.47580828
 20
97.4323568553
  0
LWPOLYLINE
  5
140
330
1F
100
AcDbEntity
  8
main_beam_width
100
AcDbPolyline
 90
10
 70
0
43
0.0
 10
-15762.4670906
 20
-86.7005871501
 10
-14021.9144215
 20
-87.8948454394
 10
-12281.3617523
 20
-89.089122901
 10
-10540.8090832
 20
-90.283419625
 10
-8800.25641408
 20
-91.4777357021
 10
-7059.70374498
 20
-92.6720712239
 10
-5319.15107589
 20
-93.866426282
 10
-3578.59840682
 20
-95.060800969
 10
-1838.04573776
 20
-96.255195378
 10
-97.4930687212
 20
-97.4496096024
  0
LWPOLYLINE
  5
141
330
1F
100
AcDbEntity
  8
main_beam_width
100
AcDbPolyline
 90
10
 70
0
43
0.0
 10
26357.0745641
 20
-111.395913531
 10
23427.456803
 20
-112.619335129
 10
20497.839042
 20
-113.842817224
 10
17568.221281
 20
-115.066359324
 10
14638.60352
 20
-116.289960941
 10
11708.985759
 20
-117.513621595
 10
8779.36799802
 20
-118.737340808
 10
5849.75023708
 20
-119.96111811
 10
2920.13247615
 20
-121.184953033
 10
-9.48528475995
 20
-122.408845116
  0
LWPOLYLINE
  5
142
330
1F
100
AcDbEntity
  8
main_beam_width
100
AcDbPolyline
 90
10
 70
0
43
0.0
 10
26357.1574805
 20
78.6344436778
 10
23449.2400551
 20
77.9354244639
 10
20541.3226297
 20
77.2364648572
 10
17633.4052042
 20
76.5375643766
 10
14725.4877788
 20
75.838722546
 10
11817.5703533
 20
75.1399388942
 10
8909.6529278
 20
74.4412129551
 10
6001.73550229
 20
73.7425442675
 10
3093.81807675
 20
73.0439323747
 10
185.900651197
 20
72.3453768251
  0
LWPOLYLINE
  5
143
330
1F
100
AcDbEntity
  8
main_beam_width
100
AcDbPolyline
 90
10
 70
0
43
0.0
 10
185.900651197
 20
72.3453768251
 10
3093.81807675
 20
73.0439323747
 10
6001.73550229
 20
73.7425442674
 10
8909.6529278
 20
74.4412129551
 10
11817.5703533
 20
75.1399388942
 10
14725.4877788
 20
75.8387225459
 10
17633.4052042
 20
76.5375643766
 10
20541.3226297
 20
77.2364648572
 10
23449.2400551
 20
77.9354244639
 10
26357.1574805
 20
78.6344436778
  0
LWPOLYLINE
  5
144
330
1F
100
AcDbEntity
  8
main_beam_width
100
AcDbPolyline
 90
10
 70
0
43
0.0
 10
-9.48528475995
 20
-122.408845116
 10
2920.13247615
 20
-121.184953033
 10
5849.75023708
 20
-119.96111811
 10
8779.36799802
 20
-118.737340808
 10
11708.985759
 20
-117.513621595
 10
14638.60352
 20
-116.289960941
 10
17568.221281
 20
-115.066359324
 10
20497.839042
 20
-113.842817224
 10
23427.456803
 20
-112.619335129
 10
26357.0745641
 20
-111.395913531
  0
LWPOLYLINE
  5
145
330
1F
100
AcDbEntity
  8
main_beam_width
100
AcDbPolyline
 90
10
 70
0
43
0.0
 10
276.68313111
 20
-19426.0550715
 10
276.483596823
 20
-19437.2278691
 10
276.284063022
 20
-19448.4006666
 10
276.084529707
 20
-19459.5734642
 10
275.884996878
 20
-19470.7462618
 10
275.685464534
 20
-19481.9190594
 10
275.485932676
 20
-19493.091857
 10
275.286401304
 20
-19504.2646546
 10
275.086870418
 20
-19515.4374522
 10
274.887340017
 20
-19526.6102499
  0
LWPOLYLINE
  5
146
330
1F
100
AcDbEntity
  8
main_beam_width
100
AcDbPolyline
 90
10
 70
0
43
0.0
 10
253.440611094
 20
-19426.8158737
 10
253.242620397
 20
-19437.8579521
 10
253.044629225
 20
-19448.9000304
 10
252.846637579
 20
-19459.9421088
 10
252.648645458
 20
-19470.9841872
 10
252.450652863
 20
-19482.0262655
 10
252.252659793
 20
-19493.0683438
 10
252.054666249
 20
-19504.1104222
 10
251.85667223
 20
-19515.1525005
 10
251.658677737
 20
-19526.1945788
  0
LWPOLYLINE
  5
147
330
1F
100
AcDbEntity
  8
main_beam_width
100
AcDbPolyline
 90
10
 70
0
43
0.0
 10
276.68313111
 20
-19426.0550715
 10
276.483596823
 20
-19437.2278691
 10
276.284063022
 20
-19448.4006666
 10
276.084529707
 20
-19459.5734642
 10
275.884996877
 20
-19470.7462618
 10
275.685464534
 20
-19481.9190594
 10
275.485932676
 20
-19493.091857
 10
275.286401304
 20
-19504.2646546
 10
275.086870417
 20
-19515.4374522
 10
274.887340017
 20
-19526.6102499
  0
LWPOLYLINE
  5
148
330
1F
100
AcDbEntity
  8
main_beam_width
100
AcDbPolyline
 90
10
 70
0
43
0.0
 10
253.440611094
 20
-19426.8158737
 10
253.242620397
 20
-19437.8579521
 10
253.044629225
 20
-19448.9000304
 10
252.846637579
 20
-19459.9421088
 10
252.648645458
 20
-19470.9841872
 10
252.450652862
 20
-19482.0262655
 10
252.252659792
 20
-19493.0683438
 10
252.054666248
 20
-19504.1104222
 10
251.856672229
 20
-19515.1525005
 10
251.658677736
 20
-19526.1945788
  0
CIRCLE
  5
14a
330
1F
100
AcDbEntity
  8
Vacuum
100
AcDbCircle
 10
-19512.0901964
 20
226.574999379
 30
0.0
  40
750.0
  0
LWPOLYLINE
  5
14b
330
1F
100
AcDbEntity
  8
Vacuum
100
AcDbPolyline
 90
5
 70
0
43
0.0
 10
-20362.0901964
 20
619.074999379
 10
-18662.0901964
 20
619.074999379
 10
-18662.0901964
 20
-165.925000621
 10
-20362.0901964
 20
-165.925000621
 10
-20362.0901964
 20
619.074999379
  0
CIRCLE
  5
14c
330
1F
100
AcDbEntity
  8
Vacuum
100
AcDbCircle
 10
-4648.14247562
 20
269.304550668
 30
0.0
  40
750.0
  0
LWPOLYLINE
  5
14d
330
1F
100
AcDbEntity
  8
Vacuum
100
AcDbPolyline
 90
5
 70
0
43
0.0
 10
-5498.14247562
 20
501.804550668
 10
-3798.14247562
 20
501.804550668
 10
-3798.14247562
 20
-283.195449332
 10
-5498.14247562
 20
-283.195449332
 10
-5498.14247562
 20
501.804550668
  0
CIRCLE
  5
14e
330
1F
100
AcDbEntity
  8
Vacuum
100
AcDbCircle
 10
-15813.4545987
 20
11.6583013092
 30
0.0
  40
750.0
  0
LWPOLYLINE
  5
14f
330
1F
100
AcDbEntity
  8
Vacuum
100
AcDbPolyline
 90
5
 70
0
43
0.0
 10
-16663.4545987
 20
564.158301309
 10
-14963.4545987
 20
564.158301309
 10
-14963.4545987
 20
-220.841698691
 10
-16663.4545987
 20
-220.841698691
 10
-16663.4545987
 20
564.158301309
  0
LINE
  5
150
330
1F
100
AcDbEntity
  8
Vacuum
100
AcDbLine
 10
-18662.0901964
 20
619.074999379
 30
0.0
  11
-16663.4545987
 21
564.158301309
 31
0.0
  0
LINE
  5
151
330
1F
100
AcDbEntity
  8
Vacuum
100
AcDbLine
 10
-18662.0901964
 20
-165.925000621
 30
0.0
  11
-16663.4545987
 21
-220.841698691
 31
0.0
  0
LINE
  5
152
330
1F
100
AcDbEntity
  8
Vacuum
100
AcDbLine
 10
-14963.4545987
 20
564.158301309
 30
0.0
  11
-5498.14247562
 21
501.804550668
 31
0.0
  0
LINE
  5
153
330
1F
100
AcDbEntity
  8
Vacuum
100
AcDbLine
 10
-14963.4545987
 20
-220.841698691
 30
0.0
  11
-5498.14247562
 21
-283.195449332
 31
0.0
  0
CIRCLE
  5
154
330
1F
100
AcDbEntity
  8
Vacuum
100
AcDbCircle
 10
28.2779650527
 20
-28.2905760365
 30
0.0
  40
750.0
  0
LWPOLYLINE
  5
155
330
1F
100
AcDbEntity
  8
Vacuum
100
AcDbPolyline
 90
5
 70
0
43
0.0
 10
-821.722034947
 20
364.209423964
 10
878.277965053
 20
364.209423964
 10
878.277965053
 20
-420.790576036
 10
-821.722034947
 20
-420.790576036
 10
-821.722034947
 20
364.209423964
  0
LWPOLYLINE
  5
156
330
1F
100
AcDbEntity
  8
Vacuum
100
AcDbPolyline
 90
5
 70
0
43
0.0
 10
-364.222034947
 20
821.709423964
 10
420.777965053
 20
821.709423964
 10
420.777965053
 20
-878.290576036
 10
-364.222034947
 20
-878.290576036
 10
-364.222034947
 20
821.709423964
  0
LINE
  5
157
330
1F
100
AcDbEntity
  8
Vacuum
100
AcDbLine
 10
-3798.14247562
 20
501.804550668
 30
0.0
  11
-821.722034947
 21
364.209423964
 31
0.0
  0
LINE
  5
158
330
1F
100
AcDbEntity
  8
Vacuum
100
AcDbLine
 10
-3798.14247562
 20
-283.195449332
 30
0.0
  11
-821.722034947
 21
-420.790576036
 31
0.0
  0
CIRCLE
  5
159
330
1F
100
AcDbEntity
  8
Vacuum
100
AcDbCircle
 10
265.171145199
 20
-19376.4355913
 30
0.0
  40
750.0
  0
LWPOLYLINE
  5
15a
330
1F
100
AcDbEntity
  8
Vacuum
100
AcDbPolyline
 90
5
 70
0
43
0.0
 10
-127.328854801
 20
-18526.4355913
 10
657.671145199
 20
-18526.4355913
 10
657.671145199
 20
-20226.4355913
 10
-127.328854801
 20
-20226.4355913
 10
-127.328854801
 20
-18526.4355913
  0
CIRCLE
  5
15b
330
1F
100
AcDbEntity
  8
Vacuum
100
AcDbCircle
 10
298.140858953
 20
-4532.65181384
 30
0.0
  40
750.0
  0
LWPOLYLINE
  5
15c
330
1F
100
AcDbEntity
  8
Vacuum
100
AcDbPolyline
 90
5
 70
0
43
0.0
 10
-254.359141047
 20
-3682.65181384
 10
530.640858953
 20
-3682.65181384
 10
530.640858953
 20
-5382.65181384
 10
-254.359141047
 20
-5382.65181384
 10
-254.359141047
 20
-3682.65181384
  0
CIRCLE
  5
15d
330
1F
100
AcDbEntity
  8
Vacuum
100
AcDbCircle
 10
46.7147158387
 20
-15743.6344271
 30
0.0
  40
750.0
  0
LWPOLYLINE
  5
15e
330
1F
100
AcDbEntity
  8
Vacuum
100
AcDbPolyline
 90
5
 70
0
43
0.0
 10
-345.785284161
 20
-14893.6344271
 10
439.214715839
 20
-14893.6344271
 10
439.214715839
 20
-16593.6344271
 10
-345.785284161
 20
-16593.6344271
 10
-345.785284161
 20
-14893.6344271
  0
LINE
  5
15f
330
1F
100
AcDbEntity
  8
Vacuum
100
AcDbLine
 10
-127.328854801
 20
-18526.4355913
 30
0.0
  11
-345.785284161
 21
-16593.6344271
 31
0.0
  0
LINE
  5
160
330
1F
100
AcDbEntity
  8
Vacuum
100
AcDbLine
 10
657.671145199
 20
-18526.4355913
 30
0.0
  11
439.214715839
 21
-16593.6344271
 31
0.0
  0
LINE
  5
161
330
1F
100
AcDbEntity
  8
Vacuum
100
AcDbLine
 10
-345.785284161
 20
-14893.6344271
 30
0.0
  11
-254.359141047
 21
-5382.65181384
 31
0.0
  0
LINE
  5
162
330
1F
100
AcDbEntity
  8
Vacuum
100
AcDbLine
 10
439.214715839
 20
-14893.6344271
 30
0.0
  11
530.640858953
 21
-5382.65181384
 31
0.0
  0
LINE
  5
163
330
1F
100
AcDbEntity
  8
Vacuum
100
AcDbLine
 10
-254.359141047
 20
-3682.65181384
 30
0.0
  11
-364.222034947
 21
-878.290576036
 31
0.0
  0
LINE
  5
164
330
1F
100
AcDbEntity
  8
Vacuum
100
AcDbLine
 10
530.640858953
 20
-3682.65181384
 30
0.0
  11
420.777965053
 21
-878.290576036
 31
0.0
  0
CIRCLE
  5
165
330
1F
100
AcDbEntity
  8
Vacuum
100
AcDbCircle
 10
26432.1160223
 20
-16.3807284905
 30
0.0
  40
1250.0
  0
LWPOLYLINE
  5
166
330
1F
100
AcDbEntity
  8
Vacuum
100
AcDbPolyline
 90
5
 70
0
43
0.0
 10
25082.1160223
 20
376.119271509
 10
27782.1160223
 20
376.119271509
 10
27782.1160223
 20
-408.880728491
 10
25082.1160223
 20
-408.880728491
 10
25082.1160223
 20
376.119271509
  0
CIRCLE
  5
167
330
1F
100
AcDbEntity
  8
Vacuum
100
AcDbCircle
 10
-7.59055707329
 20
23146.9789127
 30
0.0
  40
1250.0
  0
LWPOLYLINE
  5
168
330
1F
100
AcDbEntity
  8
Vacuum
100
AcDbPolyline
 90
5
 70
0
43
0.0
 10
-400.090557073
 20
24496.9789127
 10
384.909442927
 20
24496.9789127
 10
384.909442927
 20
21796.9789127
 10
-400.090557073
 20
21796.9789127
 10
-400.090557073
 20
24496.9789127
  0
LINE
  5
169
330
1F
100
AcDbEntity
  8
Vacuum
100
AcDbLine
 10
878.277965053
 20
364.209423964
 30
0.0
  11
25082.1160223
 21
376.119271509
 31
0.0
  0
LINE
  5
16a
330
1F
100
AcDbEntity
  8
Vacuum
100
AcDbLine
 10
878.277965053
 20
-420.790576036
 30
0.0
  11
25082.1160223
 21
-408.880728491
 31
0.0
  0
LINE
  5
16b
330
1F
100
AcDbEntity
  8
Vacuum
100
AcDbLine
 10
-364.222034947
 20
821.709423964
 30
0.0
  11
-400.090557073
 21
21796.9789127
 31
0.0
  0
LINE
  5
16c
330
1F
100
AcDbEntity
  8
Vacuum
100
AcDbLine
 10
420.777965053
 20
821.709423964
 30
0.0
  11
384.909442927
 21
21796.9789127
 31
0.0
  0
LWPOLYLINE
  5
170
330
1F
100
AcDbEntity
  8
aux_beam_width
100
AcDbPolyline
 90
10
 70
0
43
0.0
 10
88.0214503724
 20
23221.9757351
 10
88.0385172436
 20
23205.3047786
 10
88.0555841154
 20
23188.6338222
 10
88.0726509879
 20
23171.9628657
 10
88.089717861
 20
23155.2919093
 10
88.1067847347
 20
23138.6209528
 10
88.1238516091
 20
23121.9499964
 10
88.1409184841
 20
23105.27904
 10
88.1579853597
 20
23088.6080835
 10
88.175052236
 20
23071.9371271
  0
LWPOLYLINE
  5
171
330
1F
100
AcDbEntity
  8
aux_beam_width
100
AcDbPolyline
 90
10
 70
0
43
0.0
 10
-102.94074548
 20
23221.9757219
 10
-102.928718127
 20
23205.3140272
 10
-102.916690774
 20
23188.6523326
 10
-102.904663422
 20
23171.9906379
 10
-102.892636071
 20
23155.3289432
 10
-102.88060872
 20
23138.6672485
 10
-102.86858137
 20
23122.0055539
 10
-102.856554021
 20
23105.3438592
 10
-102.844526672
 20
23088.6821645
 10
-102.832499324
 20
23072.0204698
  0
LWPOLYLINE
  5
172
330
1F
100
AcDbEntity
  8
aux_beam_width
100
AcDbPolyline
 90
10
 70
0
43
0.0
 10
136.924348672
 20
136.863312419
 10
139.713662669
 20
127.050731464
 10
142.502976667
 20
117.238150508
 10
145.292290664
 20
107.425569553
 10
148.081604662
 20
97.6129885973
 10
150.87091866
 20
87.8004076419
 10
153.660232658
 20
77.9878266866
 10
156.449546657
 20
68.1752457313
 10
159.238860655
 20
58.362664776
 10
162.028174654
 20
48.5500838208
  0
LWPOLYLINE
  5
173
330
1F
100
AcDbEntity
  8
aux_beam_width
100
AcDbPolyline
 90
10
 70
0
43
0.0
 10
-65.9077951736
 20
-65.8784157035
 10
-63.1348336744
 20
-75.6444770572
 10
-60.3618721752
 20
-85.4105384109
 10
-57.5889106762
 20
-95.1765997647
 10
-54.8159491774
 20
-104.942661118
 10
-52.0429876787
 20
-114.708722472
 10
-49.2700261802
 20
-124.474783826
 10
-46.4970646818
 20
-134.24084518
 10
-43.7241031835
 20
-144.006906534
 10
-40.9511416854
 20
-153.772967888
  0
LWPOLYLINE
  5
174
330
1F
100
AcDbEntity
  8
aux_beam_width
100
AcDbPolyline
 90
10
 70
0
43
0.0
 10
-103.064050792
 20
23072.0205709
 10
-103.05035113
 20
23088.6822543
 10
-103.036651468
 20
23105.3439378
 10
-103.022951807
 20
23122.0056212
 10
-103.009252147
 20
23138.6673047
 10
-102.995552487
 20
23155.3289881
 10
-102.981852828
 20
23171.9906716
 10
-102.96815317
 20
23188.652355
 10
-102.954453512
 20
23205.3140385
 10
-102.940753855
 20
23221.9757219
  0
LWPOLYLINE
  5
175
330
1F
100
AcDbEntity
  8
aux_beam_width
100
AcDbPolyline
 90
10
 70
0
43
0.0
 10
87.8829408331
 20
23071.9372545
 10
87.8983298488
 20
23088.6081968
 10
87.9137188651
 20
23105.2791391
 10
87.9291078821
 20
23121.9500814
 10
87.9444968997
 20
23138.6210237
 10
87.9598859179
 20
23155.2919659
 10
87.9752749368
 20
23171.9629082
 10
87.9906639563
 20
23188.6338505
 10
88.0060529764
 20
23205.3047928
 10
88.0214419972
 20
23221.9757351
  0
LWPOLYLINE
  5
176
330
1F
100
AcDbEntity
  8
aux_beam_width
100
AcDbPolyline
 90
10
 70
0
43
0.0
 10
88.1750914251
 20
23071.937127
 10
93.5894645959
 20
20523.5935514
 10
99.0038822651
 20
17975.2499759
 10
104.418343509
 20
15426.9064004
 10
109.83284743
 20
12878.5628251
 10
115.247393154
 20
10330.2192498
 10
120.66197983
 20
7781.87567456
 10
126.076606631
 20
5233.53209942
 10
131.491272753
 20
2685.18852435
 10
136.90597741
 20
136.844949347
  0
LWPOLYLINE
  5
177
330
1F
100
AcDbEntity
  8
aux_beam_width
100
AcDbPolyline
 90
10
 70
0
43
0.0
 10
-102.832460135
 20
23072.0204698
 10
-98.7315896259
 20
20501.1407744
 10
-94.6307643975
 20
17930.261079
 10
-90.5299835018
 20
15359.3813834
 10
-86.429246017
 20
12788.5016878
 10
-82.3285510467
 20
10217.6219921
 10
-78.227897719
 20
7646.74229627
 10
-74.1272851854
 20
5075.8626004
 10
-70.0267126205
 20
2504.98290446
 10
-65.9261792207
 20
-65.8967915556
  0
LWPOLYLINE
  5
178
330
1F
100
AcDbEntity
  8
aux_beam_width
100
AcDbPolyline
 90
100
 70
0
43
0.0
 10
-15765.0750577
 20
177.717612897
 10
-15653.3161002
 20
179.023344515
 10
-15541.5571427
 20
180.329076199
 10
-15429.7981852
 20
181.63480795
 10
-15318.0392277
 20
182.940539771
 10
-15206.2802702
 20
184.246271664
 10
-15094.5213127
 20
185.55200363
 10
-14982.7623552
 20
186.857735672
 10
-14871.0033977
 20
188.163467791
 10
-14759.2444402
 20
189.46919999
 10
-14647.4854827
 20
190.774932272
 10
-14535.7265252
 20
192.080664638
 10
-14423.9675677
 20
193.38639709
 10
-14312.2086102
 20
194.692129633
 10
-14200.4496527
 20
195.997862267
 10
-14088.6906952
 20
197.303594997
 10
-13976.9317378
 20
198.609327824
 10
-13865.1727803
 20
199.915060752
 10
-13753.4138228
 20
201.220793784
 10
-13641.6548653
 20
202.526526923
 10
-13529.8959079
 20
203.832260173
 10
-13418.1369504
 20
205.137993537
 10
-13306.3779929
 20
206.443727018
 10
-13194.6190354
 20
207.749460621
 10
-13082.860078
 20
209.05519435
 10
-12971.1011205
 20
210.360928209
 10
-12859.3421631
 20
211.666662201
 10
-12747.5832056
 20
212.972396333
 10
-12635.8242482
 20
214.278130608
 10
-12524.0652907
 20
215.583865031
 10
-12412.3063333
 20
216.889599609
 10
-12300.5473758
 20
218.195334345
 10
-12188.7884184
 20
219.501069247
 10
-12077.0294609
 20
220.806804319
 10
-11965.2705035
 20
222.112539569
 10
-11853.5115461
 20
223.418275003
 10
-11741.7525886
 20
224.724010628
 10
-11629.9936312
 20
226.029746451
 10
-11518.2346738
 20
227.335482481
 10
-11406.4757164
 20
228.641218724
 10
-11294.716759
 20
229.94695519
 10
-11182.9578016
 20
231.252691888
 10
-11071.1988442
 20
232.558428828
 10
-10959.4398868
 20
233.864166019
 10
-10847.6809294
 20
235.169903471
 10
-10735.921972
 20
236.475641197
 10
-10624.1630146
 20
237.781379208
 10
-10512.4040572
 20
239.087117517
 10
-10400.6450999
 20
240.392856136
 10
-10288.8861425
 20
241.698595081
 10
-10177.1271852
 20
243.004334365
 10
-10065.3682278
 20
244.310074006
 10
-9953.60927047
 20
245.61581402
 10
-9841.85031314
 20
246.921554424
 10
-9730.09135582
 20
248.227295239
 10
-9618.3323985
 20
249.533036484
 10
-9506.5734412
 20
250.838778182
 10
-9394.8144839
 20
252.144520356
 10
-9283.05552661
 20
253.450263031
 10
-9171.29656934
 20
254.756006234
 10
-9059.53761207
 20
256.061749993
 10
-8947.77865482
 20
257.36749434
 10
-8836.01969758
 20
258.673239307
 10
-8724.26074035
 20
259.978984931
 10
-8612.50178314
 20
261.28473125
 10
-8500.74282594
 20
262.590478306
 10
-8388.98386875
 20
263.896226143
 10
-8277.22491159
 20
265.201974811
 10
-8165.46595444
 20
266.507724363
 10
-8053.70699731
 20
267.813474855
 10
-7941.94804019
 20
269.119226352
 10
-7830.1890831
 20
270.424978921
 10
-7718.43012604
 20
271.730732637
 10
-7606.671169
 20
273.036487581
 10
-7494.91221198
 20
274.342243844
 10
-7383.15325499
 20
275.648001525
 10
-7271.39429804
 20
276.953760732
 10
-7159.63534111
 20
278.259521585
 10
-7047.87638422
 20
279.565284219
 10
-6936.11742737
 20
280.87104878
 10
-6824.35847056
 20
282.176815435
 10
-6712.5995138
 20
283.482584368
 10
-6600.84055708
 20
284.788355785
 10
-6489.08160042
 20
286.094129919
 10
-6377.32264382
 20
287.399907033
 10
-6265.56368729
 20
288.705687424
 10
-6153.80473082
 20
290.011471431
 10
-6042.04577444
 20
291.31725944
 10
-5930.28681815
 20
292.623051896
 10
-5818.52786195
 20
293.928849311
 10
-5706.76890586
 20
295.234652278
 10
-5595.0099499
 20
296.540461491
 10
-5483.25099408
 20
297.846277762
 10
-5371.49203842
 20
299.152102052
 10
-5259.73308294
 20
300.457935505
 10
-5147.97412767
 20
301.763779491
 10
-5036.21517264
 20
303.06963567
 10
-4924.4562179
 20
304.375506069
 10
-4812.69726349
 20
305.68139319
 10
-4700.93830948
 20
306.98730016
  0
LWPOLYLINE
  5
179
330
1F
100
AcDbEntity
  8
aux_beam_width
100
AcDbPolyline
 90
100
 70
0
43
0.0
 10
-15763.2125853
 20
-33.8648432782
 10
-15651.4708526
 20
-30.7199520264
 10
-15539.7291199
 20
-27.5750608407
 10
-15427.9873872
 20
-24.4301697228
 10
-15316.2456545
 20
-21.2852786745
 10
-15204.5039218
 20
-18.1403876978
 10
-15092.7621891
 20
-14.9954967945
 10
-14981.0204564
 20
-11.8506059667
 10
-14869.2787236
 20
-8.70571521655
 10
-14757.5369909
 20
-5.56082454626
 10
-14645.7952582
 20
-2.41593395808
 10
-14534.0535255
 20
0.728956545616
 10
-14422.3117928
 20
3.87384696237
 10
-14310.57006
 20
7.01873728961
 10
-14198.8283273
 20
10.1636275247
 10
-14087.0865946
 20
13.3085176649
 10
-13975.3448618
 20
16.4534077072
 10
-13863.6031291
 20
19.5982976488
 10
-13751.8613964
 20
22.7431874865
 10
-13640.1196636
 20
25.888077217
 10
-13528.3779309
 20
29.032966837
 10
-13416.6361982
 20
32.177856343
 10
-13304.8944654
 20
35.3227457312
 10
-13193.1527327
 20
38.4676349978
 10
-13081.4109999
 20
41.6125241388
 10
-12969.6692672
 20
44.7574131501
 10
-12857.9275344
 20
47.9023020273
 10
-12746.1858017
 20
51.0471907657
 10
-12634.4440689
 20
54.1920793606
 10
-12522.7023361
 20
57.3369678071
 10
-12410.9606034
 20
60.4818560998
 10
-12299.2188706
 20
63.6267442333
 10
-12187.4771378
 20
66.7716322019
 10
-12075.7354051
 20
69.9165199994
 10
-11963.9936723
 20
73.0614076197
 10
-11852.2519395
 20
76.2062950559
 10
-11740.5102067
 20
79.3511823012
 10
-11628.7684739
 20
82.4960693482
 10
-11517.0267411
 20
85.6409561891
 10
-11405.2850083
 20
88.7858428159
 10
-11293.5432755
 20
91.93072922
 10
-11181.8015427
 20
95.0756153924
 10
-11070.0598099
 20
98.2205013235
 10
-10958.3180771
 20
101.365387003
 10
-10846.5763443
 20
104.510272421
 10
-10734.8346114
 20
107.655157566
 10
-10623.0928786
 20
110.800042426
 10
-10511.3511458
 20
113.944926988
 10
-10399.6094129
 20
117.089811239
 10
-10287.8676801
 20
120.234695166
 10
-10176.1259472
 20
123.379578752
 10
-10064.3842143
 20
126.524461983
 10
-9952.64248147
 20
129.66934484
 10
-9840.90074859
 20
132.814227307
 10
-9729.1590157
 20
135.959109363
 10
-9617.4172828
 20
139.10399099
 10
-9505.6755499
 20
142.248872163
 10
-9393.93381698
 20
145.393752861
 10
-9282.19208405
 20
148.538633058
 10
-9170.45035112
 20
151.683512727
 10
-9058.70861817
 20
154.82839184
 10
-8946.96688521
 20
157.973270365
 10
-8835.22515224
 20
161.11814827
 10
-8723.48341925
 20
164.263025519
 10
-8611.74168625
 20
167.407902072
 10
-8499.99995324
 20
170.552777889
 10
-8388.25822021
 20
173.697652925
 10
-8276.51648717
 20
176.84252713
 10
-8164.7747541
 20
179.987400452
 10
-8053.03302102
 20
183.132272833
 10
-7941.29128792
 20
186.27714421
 10
-7829.54955479
 20
189.422014515
 10
-7717.80782165
 20
192.566883674
 10
-7606.06608848
 20
195.711751604
 10
-7494.32435528
 20
198.856618216
 10
-7382.58262206
 20
202.001483411
 10
-7270.8408888
 20
205.14634708
 10
-7159.09915551
 20
208.291209103
 10
-7047.35742219
 20
211.436069346
 10
-6935.61568883
 20
214.580927661
 10
-6823.87395542
 20
217.725783884
 10
-6712.13222197
 20
220.87063783
 10
-6600.39048847
 20
224.015489292
 10
-6488.64875492
 20
227.160338037
 10
-6376.90702131
 20
230.305183804
 10
-6265.16528763
 20
233.450026294
 10
-6153.42355388
 20
236.59486517
 10
-6041.68182005
 20
239.739700044
 10
-5929.94008614
 20
242.884530473
 10
-5818.19835212
 20
246.029355945
 10
-5706.45661799
 20
249.174175865
 10
-5594.71488374
 20
252.318989542
 10
-5482.97314935
 20
255.463796163
 10
-5371.2314148
 20
258.608594767
 10
-5259.48968007
 20
261.753384212
 10
-5147.74794512
 20
264.898163126
 10
-5036.00620994
 20
268.042929852
 10
-4924.26447447
 20
271.187682363
 10
-4812.52273867
 20
274.332418158
 10
-4700.78100247
 20
277.477134111
  0
LWPOLYLINE
  5
17a
330
1F
100
AcDbEntity
  8
aux_beam_width
100
AcDbPolyline
 90
10
 70
0
43
0.0
 10
185.900651197
 20
72.3453768251
 10
179.806486631
 20
-1679.54786845
 10
173.712342255
 20
-3431.44111379
 10
167.618217973
 20
-5183.33435921
 10
161.52411369
 20
-6935.2276047
 10
155.430029311
 20
-8687.12085026
 10
149.33596474
 20
-10439.0140959
 10
143.241919885
 20
-12190.9073416
 10
137.147894651
 20
-13942.8005874
 10
131.053888946
 20
-15694.6938332
  0
LWPOLYLINE
  5
17b
330
1F
100
AcDbEntity
  8
aux_beam_width
100
AcDbPolyline
 90
10
 70
0
43
0.0
 10
-9.48528475995
 20
-122.408845116
 10
-15.8105261325
 20
-1852.41816049
 10
-22.1357871852
 20
-3582.42747579
 10
-28.4610678253
 20
-5312.43679102
 10
-34.7863679608
 20
-7042.44610618
 10
-41.1116874999
 20
-8772.45542127
 10
-47.4370263517
 20
-10502.4647363
 10
-53.7623844257
 20
-12232.4740512
 10
-60.087761632
 20
-13962.4833661
 10
-66.4131578813
 20
-15692.4926809
  0
LWPOLYLINE
  5
17c
330
1F
100
AcDbEntity
  8
aux_beam_width
100
AcDbPolyline
 90
10
 70
0
43
0.0
 10
-65.9261792207
 20
-65.8967915556
 10
-1810.06911772
 20
-62.3372629058
 10
-3554.21205626
 20
-58.777751683
 10
-5298.35499483
 20
-55.2182576526
 10
-7042.49793345
 20
-51.6587805843
 10
-8786.6408721
 20
-48.0993202519
 10
-10530.7838108
 20
-44.5398764332
 10
-12274.9267495
 20
-40.9804489097
 10
-14019.0696883
 20
-37.4210374671
 10
-15763.2126271
 20
-33.8616418946
  0
LWPOLYLINE
  5
17d
330
1F
100
AcDbEntity
  8
aux_beam_width
100
AcDbPolyline
 90
10
 70
0
43
0.0
 10
136.90597741
 20
136.844949347
 10
-1629.98080786
 20
141.387040083
 10
-3396.86759309
 20
145.929148728
 10
-5163.75437827
 20
150.471275039
 10
-6930.64116342
 20
155.013418775
 10
-8697.52794853
 20
159.555579701
 10
-10464.4147336
 20
164.097757585
 10
-12231.3015186
 20
168.639952202
 10
-13998.1883036
 20
173.182163326
 10
-15765.0750886
 20
177.72439074
  0
LWPOLYLINE
  5
17e
330
1F
100
AcDbEntity
  8
aux_beam_width
100
AcDbPolyline
 90
100
 70
0
43
0.0
 10
-4700.78101046
 20
277.477923314
 10
-4852.29412723
 20
278.672206119
 10
-5003.80724438
 20
279.866447126
 10
-5155.32036191
 20
281.060648025
 10
-5306.83347979
 20
282.254810415
 10
-5458.34659802
 20
283.448935815
 10
-5609.85971657
 20
284.643025661
 10
-5761.37283544
 20
285.837081319
 10
-5912.88595461
 20
287.031104086
 10
-6064.39907408
 20
288.225095193
 10
-6215.91219382
 20
289.41905581
 10
-6367.42531384
 20
290.612987053
 10
-6518.93843413
 20
291.806889981
 10
-6670.45155466
 20
293.000765606
 10
-6821.96467544
 20
294.19461489
 10
-6973.47779645
 20
295.388438751
 10
-7124.99091769
 20
296.582238066
 10
-7276.50403915
 20
297.776013672
 10
-7428.01716082
 20
298.969766367
 10
-7579.5302827
 20
300.163496915
 10
-7731.04340477
 20
301.357206046
 10
-7882.55652704
 20
302.550894459
 10
-8034.06964949
 20
303.744562821
 10
-8185.58277212
 20
304.938211774
 10
-8337.09589492
 20
306.131841931
 10
-8488.6090179
 20
307.325453878
 10
-8640.12214103
 20
308.51904818
 10
-8791.63526433
 20
309.712625377
 10
-8943.14838778
 20
310.906185988
 10
-9094.66151137
 20
312.09973051
 10
-9246.17463511
 20
313.293259422
 10
-9397.68775899
 20
314.486773184
 10
-9549.20088301
 20
315.680272237
 10
-9700.71400716
 20
316.873757006
 10
-9852.22713144
 20
318.0672279
 10
-10003.7402558
 20
319.260685311
 10
-10155.2533804
 20
320.454129619
 10
-10306.766505
 20
321.647561187
 10
-10458.2796298
 20
322.840980366
 10
-10609.7927546
 20
324.034387496
 10
-10761.3058796
 20
325.227782902
 10
-10912.8190047
 20
326.421166898
 10
-11064.3321299
 20
327.614539788
 10
-11215.8452552
 20
328.807901865
 10
-11367.3583805
 20
330.001253411
 10
-11518.871506
 20
331.1945947
 10
-11670.3846316
 20
332.387925993
 10
-11821.8977572
 20
333.581247547
 10
-11973.410883
 20
334.774559606
 10
-12124.9240088
 20
335.967862409
 10
-12276.4371347
 20
337.161156186
 10
-12427.9502607
 20
338.354441159
 10
-12579.4633868
 20
339.547717542
 10
-12730.976513
 20
340.740985545
 10
-12882.4896392
 20
341.934245369
 10
-13034.0027655
 20
343.127497209
 10
-13185.5158919
 20
344.320741253
 10
-13337.0290183
 20
345.513977685
 10
-13488.5421448
 20
346.707206683
 10
-13640.0552714
 20
347.900428417
 10
-13791.5683981
 20
349.093643056
 10
-13943.0815248
 20
350.28685076
 10
-14094.5946516
 20
351.480051686
 10
-14246.1077784
 20
352.673245986
 10
-14397.6209053
 20
353.866433808
 10
-14549.1340322
 20
355.059615295
 10
-14700.6471593
 20
356.252790585
 10
-14852.1602863
 20
357.445959815
 10
-15003.6734134
 20
358.639123115
 10
-15155.1865406
 20
359.832280612
 10
-15306.6996679
 20
361.02543243
 10
-15458.2127951
 20
362.21857869
 10
-15609.7259225
 20
363.411719508
 10
-15761.2390498
 20
364.604854997
 10
-15912.7521773
 20
365.797985269
 10
-16064.2653048
 20
366.991110431
 10
-16215.7784323
 20
368.184230586
 10
-16367.2915598
 20
369.377345838
 10
-16518.8046875
 20
370.570456285
 10
-16670.3178151
 20
371.763562023
 10
-16821.8309428
 20
372.956663146
 10
-16973.3440705
 20
374.149759745
 10
-17124.8571983
 20
375.34285191
 10
-17276.3703261
 20
376.535939726
 10
-17427.883454
 20
377.729023278
 10
-17579.3965819
 20
378.922102649
 10
-17730.9097098
 20
380.115177918
 10
-17882.4228378
 20
381.308249163
 10
-18033.9359658
 20
382.501316461
 10
-18185.4490939
 20
383.694379886
 10
-18336.962222
 20
384.88743951
 10
-18488.4753501
 20
386.080495403
 10
-18639.9884782
 20
387.273547635
 10
-18791.5016064
 20
388.466596272
 10
-18943.0147346
 20
389.659641381
 10
-19094.5278629
 20
390.852683024
 10
-19246.0409912
 20
392.045721265
 10
-19397.5541195
 20
393.238756164
 10
-19549.0672478
 20
394.431787781
 10
-19700.5803762
 20
395.624816173
  0
LWPOLYLINE
  5
17f
330
1F
100
AcDbEntity
  8
aux_beam_width
100
AcDbPolyline
 90
100
 70
0
43
0.0
 10
-4700.93831016
 20
306.988574665
 10
-4852.4432485
 20
308.597162657
 10
-5003.94818646
 20
310.20579244
 10
-5155.45312405
 20
311.814462324
 10
-5306.95806128
 20
313.42317071
 10
-5458.46299817
 20
315.031916081
 10
-5609.96793473
 20
316.640697
 10
-5761.47287098
 20
318.2495121
 10
-5912.97780692
 20
319.858360088
 10
-6064.48274257
 20
321.46723973
 10
-6215.98767793
 20
323.076149857
 10
-6367.49261303
 20
324.685089354
 10
-6518.99754786
 20
326.294057161
 10
-6670.50248244
 20
327.903052268
 10
-6822.00741677
 20
329.512073712
 10
-6973.51235088
 20
331.121120575
 10
-7125.01728475
 20
332.73019198
 10
-7276.5222184
 20
334.339287092
 10
-7428.02715185
 20
335.948405111
 10
-7579.53208509
 20
337.557545274
 10
-7731.03701813
 20
339.166706851
 10
-7882.54195097
 20
340.775889144
 10
-8034.04688364
 20
342.385091484
 10
-8185.55181612
 20
343.994313231
 10
-8337.05674843
 20
345.603553773
 10
-8488.56168057
 20
347.212812521
 10
-8640.06661255
 20
348.822088913
 10
-8791.57154437
 20
350.431382407
 10
-8943.07647604
 20
352.040692486
 10
-9094.58140755
 20
353.650018651
 10
-9246.08633893
 20
355.259360425
 10
-9397.59127016
 20
356.868717347
 10
-9549.09620126
 20
358.478088976
 10
-9700.60113222
 20
360.087474888
 10
-9852.10606306
 20
361.696874673
 10
-10003.6109938
 20
363.306287939
 10
-10155.1159244
 20
364.915714308
 10
-10306.6208548
 20
366.525153415
 10
-10458.1257852
 20
368.134604909
 10
-10609.6307154
 20
369.744068451
 10
-10761.1356456
 20
371.353543717
 10
-10912.6405756
 20
372.96303039
 10
-11064.1455055
 20
374.572528168
 10
-11215.6504354
 20
376.182036759
 10
-11367.1553651
 20
377.791555879
 10
-11518.6602947
 20
379.401085257
 10
-11670.1652243
 20
381.010624627
 10
-11821.6701537
 20
382.620173738
 10
-11973.1750831
 20
384.229732341
 10
-12124.6800124
 20
385.839300199
 10
-12276.1849416
 20
387.448877084
 10
-12427.6898707
 20
389.058462771
 10
-12579.1947997
 20
390.668057047
 10
-12730.6997287
 20
392.277659702
 10
-12882.2046576
 20
393.887270537
 10
-13033.7095864
 20
395.496889354
 10
-13185.2145151
 20
397.106515966
 10
-13336.7194438
 20
398.71615019
 10
-13488.2243724
 20
400.325791848
 10
-13639.7293009
 20
401.935440768
 10
-13791.2342294
 20
403.545096783
 10
-13942.7391578
 20
405.154759733
 10
-14094.2440861
 20
406.76442946
 10
-14245.7490144
 20
408.374105812
 10
-14397.2539426
 20
409.983788642
 10
-14548.7588708
 20
411.593477806
 10
-14700.2637989
 20
413.203173166
 10
-14851.768727
 20
414.812874587
 10
-15003.2736549
 20
416.422581937
 10
-15154.7785829
 20
418.032295089
 10
-15306.2835108
 20
419.64201392
 10
-15457.7884386
 20
421.251738309
 10
-15609.2933664
 20
422.861468139
 10
-15760.7982941
 20
424.471203298
 10
-15912.3032218
 20
426.080943673
 10
-16063.8081494
 20
427.690689158
 10
-16215.313077
 20
429.300439649
 10
-16366.8180046
 20
430.910195044
 10
-16518.3229321
 20
432.519955243
 10
-16669.8278595
 20
434.129720151
 10
-16821.332787
 20
435.739489673
 10
-16972.8377143
 20
437.349263719
 10
-17124.3426417
 20
438.959042199
 10
-17275.847569
 20
440.568825027
 10
-17427.3524962
 20
442.178612119
 10
-17578.8574234
 20
443.788403393
 10
-17730.3623506
 20
445.398198767
 10
-17881.8672778
 20
447.007998165
 10
-18033.3722049
 20
448.61780151
 10
-18184.8771319
 20
450.227608728
 10
-18336.382059
 20
451.837419747
 10
-18487.886986
 20
453.447234496
 10
-18639.3919129
 20
455.057052907
 10
-18790.8968399
 20
456.666874911
 10
-18942.4017668
 20
458.276700445
 10
-19093.9066936
 20
459.886529443
 10
-19245.4116205
 20
461.496361843
 10
-19396.9165473
 20
463.106197585
 10
-19548.421474
 20
464.716036609
 10
-19699.9264008
 20
466.325878858
  0
LWPOLYLINE
  5
180
330
1F
100
AcDbEntity
  8
aux_beam_width
100
AcDbPolyline
 90
100
 70
0
43
0.0
 10
-66.4146074764
 20
-15692.492659
 10
-63.4333567716
 20
-15580.281852
 10
-60.4521061487
 20
-15468.0710449
 10
-57.47085561
 20
-15355.8602378
 10
-54.4896051579
 20
-15243.6494307
 10
-51.5083547947
 20
-15131.4386236
 10
-48.527104523
 20
-15019.2278166
 10
-45.5458543453
 20
-14907.0170095
 10
-42.5646042644
 20
-14794.8062024
 10
-39.5833542831
 20
-14682.5953953
 10
-36.6021044042
 20
-14570.3845882
 10
-33.620854631
 20
-14458.1737811
 10
-30.6396049664
 20
-14345.962974
 10
-27.6583554138
 20
-14233.7521669
 10
-24.6771059766
 20
-14121.5413598
 10
-21.6958566584
 20
-14009.3305527
 10
-18.7146074629
 20
-13897.1197456
 10
-15.7333583939
 20
-13784.9089385
 10
-12.7521094554
 20
-13672.6981314
 10
-9.77086065175
 20
-13560.4873243
 10
-6.78961198723
 20
-13448.2765172
 10
-3.80836346643
 20
-13336.06571
 10
-0.827115094134
 20
-13223.8549029
 10
2.15413312467
 20
-13111.6440958
 10
5.13538118477
 20
-12999.4332887
 10
8.1166290807
 20
-12887.2224815
 10
11.0978768067
 20
-12775.0116744
 10
14.0791243569
 20
-12662.8008673
 10
17.060371725
 20
-12550.5900601
 10
20.0416189044
 20
-12438.379253
 10
23.0228658883
 20
-12326.1684458
 10
26.0041126693
 20
-12213.9576387
 10
28.98535924
 20
-12101.7468315
 10
31.9666055924
 20
-11989.5360244
 10
34.947851718
 20
-11877.3252172
 10
37.9290976082
 20
-11765.11441
 10
40.9103432536
 20
-11652.9036029
 10
43.8915886445
 20
-11540.6927957
 10
46.8728337705
 20
-11428.4819885
 10
49.8540786209
 20
-11316.2711813
 10
52.8353231843
 20
-11204.0603741
 10
55.8165674484
 20
-11091.8495669
 10
58.7978114006
 20
-10979.6387597
 10
61.7790550272
 20
-10867.4279525
 10
64.7602983141
 20
-10755.2171453
 10
67.7415412461
 20
-10643.0063381
 10
70.722783807
 20
-10530.7955309
 10
73.7040259799
 20
-10418.5847236
 10
76.6852677466
 20
-10306.3739164
 10
79.6665090878
 20
-10194.1631091
 10
82.6477499831
 20
-10081.9523019
 10
85.6289904105
 20
-9969.7414946
 10
88.6102303469
 20
-9857.53068732
 10
91.5914697673
 20
-9745.31988003
 10
94.5727086451
 20
-9633.10907274
 10
97.553946952
 20
-9520.89826543
 10
100.535184657
 20
-9408.68745811
 10
103.516421729
 20
-9296.47665077
 10
106.497658131
 20
-9184.26584343
 10
109.478893827
 20
-9072.05503607
 10
112.460128775
 20
-8959.8442287
 10
115.441362931
 20
-8847.63342131
 10
118.42259625
 20
-8735.42261391
 10
121.403828679
 20
-8623.21180649
 10
124.385060163
 20
-8511.00099905
 10
127.366290643
 20
-8398.7901916
 10
130.347520052
 20
-8286.57938412
 10
133.328748321
 20
-8174.36857663
 10
136.309975371
 20
-8062.15776911
 10
139.291201119
 20
-7949.94696156
 10
142.272425472
 20
-7837.73615399
 10
145.253648328
 20
-7725.52534639
 10
148.234869576
 20
-7613.31453876
 10
151.216089092
 20
-7501.1037311
 10
154.197306742
 20
-7388.89292341
 10
157.178522375
 20
-7276.68211567
 10
160.159735823
 20
-7164.4713079
 10
163.140946902
 20
-7052.26050008
 10
166.122155403
 20
-6940.04969221
 10
169.103361093
 20
-6827.83888429
 10
172.084563712
 20
-6715.62807632
 10
175.065762965
 20
-6603.41726828
 10
178.046958518
 20
-6491.20646017
 10
181.028149991
 20
-6378.99565198
 10
184.009336951
 20
-6266.78484371
 10
186.990518901
 20
-6154.57403535
 10
189.97169527
 20
-6042.36322688
 10
192.952865393
 20
-5930.15241829
 10
195.934028499
 20
-5817.94160957
 10
198.915183681
 20
-5705.73080071
 10
201.896329873
 20
-5593.51999167
 10
204.877465804
 20
-5481.30918245
 10
207.858589956
 20
-5369.098373
 10
210.839700493
 20
-5256.8875633
 10
213.820795177
 20
-5144.6767533
 10
216.801871252
 20
-5032.46594295
 10
219.782925285
 20
-4920.25513219
 10
222.763952941
 20
-4808.04432094
 10
225.74494867
 20
-4695.83350909
 10
228.725905246
 20
-4583.6226965
  0
LWPOLYLINE
  5
181
330
1F
100
AcDbEntity
  8
aux_beam_width
100
AcDbPolyline
 90
100
 70
0
43
0.0
 10
131.049407878
 20
-15694.693801
 10
132.27146264
 20
-15582.468173
 10
133.493517483
 20
-15470.2425451
 10
134.715572411
 20
-15358.0169171
 10
135.937627426
 20
-15245.7912892
 10
137.159682529
 20
-15133.5656612
 10
138.381737724
 20
-15021.3400333
 10
139.603793013
 20
-14909.1144053
 10
140.825848399
 20
-14796.8887774
 10
142.047903884
 20
-14684.6631494
 10
143.269959472
 20
-14572.4375215
 10
144.492015165
 20
-14460.2118935
 10
145.714070967
 20
-14347.9862656
 10
146.936126881
 20
-14235.7606377
 10
148.158182911
 20
-14123.5350097
 10
149.380239059
 20
-14011.3093818
 10
150.60229533
 20
-13899.0837539
 10
151.824351728
 20
-13786.8581259
 10
153.046408256
 20
-13674.632498
 10
154.268464919
 20
-13562.4068701
 10
155.490521721
 20
-13450.1812422
 10
156.712578667
 20
-13337.9556142
 10
157.934635762
 20
-13225.7299863
 10
159.156693009
 20
-13113.5043584
 10
160.378750416
 20
-13001.2787305
 10
161.600807987
 20
-12889.0531026
 10
162.822865727
 20
-12776.8274747
 10
164.044923644
 20
-12664.6018468
 10
165.266981742
 20
-12552.3762189
 10
166.48904003
 20
-12440.150591
 10
167.711098512
 20
-12327.9249631
 10
168.933157198
 20
-12215.6993352
 10
170.155216094
 20
-12103.4737073
 10
171.377275208
 20
-11991.2480795
 10
172.599334549
 20
-11879.0224516
 10
173.821394126
 20
-11766.7968237
 10
175.043453947
 20
-11654.5711959
 10
176.265514023
 20
-11542.345568
 10
177.487574363
 20
-11430.1199401
 10
178.709634979
 20
-11317.8943123
 10
179.931695883
 20
-11205.6686844
 10
181.153757085
 20
-11093.4430566
 10
182.3758186
 20
-10981.2174288
 10
183.597880439
 20
-10868.9918009
 10
184.819942619
 20
-10756.7661731
 10
186.042005154
 20
-10644.5405453
 10
187.264068059
 20
-10532.3149175
 10
188.486131353
 20
-10420.0892897
 10
189.708195052
 20
-10307.8636619
 10
190.930259178
 20
-10195.6380341
 10
192.152323749
 20
-10083.4124063
 10
193.374388788
 20
-9971.18677858
 10
194.596454318
 20
-9858.96115082
 10
195.818520364
 20
-9746.73552307
 10
197.040586952
 20
-9634.50989533
 10
198.262654111
 20
-9522.28426761
 10
199.484721872
 20
-9410.05863989
 10
200.706790267
 20
-9297.83301219
 10
201.92885933
 20
-9185.60738449
 10
203.150929101
 20
-9073.38175682
 10
204.372999619
 20
-8961.15612915
 10
205.595070928
 20
-8848.9305015
 10
206.817143075
 20
-8736.70487387
 10
208.039216111
 20
-8624.47924625
 10
209.261290093
 20
-8512.25361865
 10
210.483365078
 20
-8400.02799107
 10
211.705441134
 20
-8287.80236351
 10
212.92751833
 20
-8175.57673597
 10
214.149596745
 20
-8063.35110845
 10
215.371676461
 20
-7951.12548096
 10
216.593757573
 20
-7838.89985349
 10
217.815840181
 20
-7726.67422606
 10
219.037924397
 20
-7614.44859865
 10
220.260010344
 20
-7502.22297127
 10
221.482098157
 20
-7389.99734393
 10
222.704187987
 20
-7277.77171663
 10
223.926280001
 20
-7165.54608937
 10
225.148374384
 20
-7053.32046215
 10
226.370471344
 20
-6941.09483498
 10
227.592571113
 20
-6828.86920786
 10
228.814673954
 20
-6716.6435808
 10
230.036780159
 20
-6604.41795381
 10
231.258890064
 20
-6492.19232688
 10
232.481004047
 20
-6379.96670003
 10
233.703122541
 20
-6267.74107326
 10
234.925246044
 20
-6155.51544659
 10
236.147375126
 20
-6043.28982002
 10
237.369510451
 20
-5931.06419357
 10
238.591652791
 20
-5818.83856725
 10
239.81380305
 20
-5706.61294108
 10
241.035962297
 20
-5594.38731508
 10
242.258131798
 20
-5482.16168927
 10
243.480313073
 20
-5369.93606368
 10
244.702507956
 20
-5257.71043834
 10
245.924718682
 20
-5145.4848133
 10
247.146948005
 20
-5033.25918861
 10
248.369199356
 20
-4921.03356433
 10
249.591477065
 20
-4808.80794055
 10
250.813786676
 20
-4696.58231736
 10
252.036135405
 20
-4584.35669491
  0
LWPOLYLINE
  5
182
330
1F
100
AcDbEntity
  8
aux_beam_width
100
AcDbPolyline
 90
10
 70
0
43
0.0
 10
252.035733917
 20
-4584.35668383
 10
197.413902634
 20
-5817.80295579
 10
142.797971725
 20
-7051.24948889
 10
88.1879777296
 20
-8284.69628476
 10
33.5839483106
 20
-9518.14334462
 10
-21.0140979609
 20
-10751.5906693
 10
-75.6061517465
 20
-11985.0382592
 10
-130.192213013
 20
-13218.4861143
 10
-184.772291033
 20
-14451.9342343
 10
-239.346404313
 20
-15685.3826182
  0
LWPOLYLINE
  5
183
330
1F
100
AcDbEntity
  8
aux_beam_width
100
AcDbPolyline
 90
10
 70
0
43
0.0
 10
228.725146326
 20
-4583.62266964
 10
174.164371652
 20
-5817.03856554
 10
119.597696911
 20
-7050.4542003
 10
65.0250855675
 20
-8283.86957231
 10
10.4465099637
 20
-9517.28468034
 10
-44.1380484693
 20
-10750.6995236
 10
-98.7285990681
 20
-11984.1141016
 10
-153.325141865
 20
-13217.5284144
 10
-207.927667587
 20
-14450.9424624
 10
-262.536157729
 20
-15684.3562464
  0
ENDSEC
  0
SECTION
  2
OBJECTS
  0
DICTIONARY
  5
C
330
0
100
AcDbDictionary
281
     1
  3
ACAD_GROUP
350
D
  3
ACAD_LAYOUT
350
1A
  3
ACAD_MATERIAL
350
3B
  3
ACAD_MLEADERSTYLE
350
6E
  3
ACAD_MLINESTYLE
350
17
  3
ACAD_PLOTSETTINGS
350
19
  3
ACAD_PLOTSTYLENAME
350
E
  3
ACAD_TABLESTYLE
350
6D
  3
ACAD_VISUALSTYLE
350
2A
  0
SUN
  5
3F
330
29
100
AcDbSun
 90
        1
290
     0
 63
     7
421
 16777215
 40
1.0
291
     1
 91
  2455826
 92
 54000000
292
     0
 70
     2
 71
   256
280
     1
  0
DICTIONARY
  5
D
102
{ACAD_REACTORS
330
C
102
}
330
C
100
AcDbDictionary
281
     1
  0
DICTIONARY
  5
1A
102
{ACAD_REACTORS
330
C
102
}
330
C
100
AcDbDictionary
281
     1
  3
Layout1
350
1E
  3
Layout2
350
26
  3
Model
350
22
  0
DICTIONARY
  5
3B
102
{ACAD_REACTORS
330
C
102
}
330
C
100
AcDbDictionary
281
     1
  3
ByBlock
350
3D
  3
ByLayer
350
3C
  3
Global
350
3E
  0
DICTIONARY
  5
6E
102
{ACAD_REACTORS
330
C
102
}
330
C
100
AcDbDictionary
281
     1
  0
DICTIONARY
  5
17
102
{ACAD_REACTORS
330
C
102
}
330
C
100
AcDbDictionary
281
     1
  3
Standard
350
18
  0
DICTIONARY
  5
19
102
{ACAD_REACTORS
330
C
102
}
330
C
100
AcDbDictionary
281
     1
  0
ACDBDICTIONARYWDFLT
  5
E
102
{ACAD_REACTORS
330
C
102
}
330
C
100
AcDbDictionary
281
     1
  3
Normal
350
F
100
AcDbDictionaryWithDefault
340
F
  0
DICTIONARY
  5
6D
102
{ACAD_REACTORS
330
C
102
}
330
C
100
AcDbDictionary
281
     1
  0
DICTIONARY
  5
2A
102
{ACAD_REACTORS
330
C
102
}
330
C
100
AcDbDictionary
281
     1
  3
2dWireframe
350
2F
  3
3D Hidden
350
31
  3
3dWireframe
350
30
  3
Basic
350
32
  3
Brighten
350
36
  3
ColorChange
350
3A
  3
Conceptual
350
34
  3
Dim
350
35
  3
Facepattern
350
39
  3
Flat
350
2B
  3
FlatWithEdges
350
2C
  3
Gouraud
350
2D
  3
GouraudWithEdges
350
2E
  3
Linepattern
350
38
  3
Realistic
350
33
  3
Thicken
350
37
  0
LAYOUT
  5
1E
102
{ACAD_REACTORS
330
1A
102
}
330
1A
100
AcDbPlotSettings
  1

  2
none_device
  4

  6

 40
0.0
 41
0.0
 42
0.0
 43
0.0
 44
0.0
 45
0.0
 46
0.0
 47
0.0
 48
0.0
 49
0.0
140
0.0
141
0.0
142
1.0
143
1.0
 70
   688
 72
     0
 73
     0
 74
     5
  7

 75
    16
 76
     0
 77
     2
 78
   300
147
1.0
148
0.0
149
0.0
100
AcDbLayout
  1
Layout1
 70
     1
 71
     1
 10
0.0
 20
0.0
 11
420.0
 21
297.0
 12
0.0
 22
0.0
 32
0.0
 14
1.000000000000000E+20
 24
1.000000000000000E+20
 34
1.000000000000000E+20
 15
-1.000000000000000E+20
 25
-1.000000000000000E+20
 35
-1.000000000000000E+20
146
0.0
 13
0.0
 23
0.0
 33
0.0
 16
1.0
 26
0.0
 36
0.0
 17
0.0
 27
1.0
 37
0.0
 76
     0
330
1B
  0
LAYOUT
  5
26
102
{ACAD_REACTORS
330
1A
102
}
330
1A
100
AcDbPlotSettings
  1

  2
none_device
  4

  6

 40
0.0
 41
0.0
 42
0.0
 43
0.0
 44
0.0
 45
0.0
 46
0.0
 47
0.0
 48
0.0
 49
0.0
140
0.0
141
0.0
142
1.0
143
1.0
 70
   688
 72
     0
 73
     0
 74
     5
  7

 75
    16
 76
     0
 77
     2
 78
   300
147
1.0
148
0.0
149
0.0
100
AcDbLayout
  1
Layout2
 70
     1
 71
     2
 10
0.0
 20
0.0
 11
0.0
 21
0.0
 12
0.0
 22
0.0
 32
0.0
 14
0.0
 24
0.0
 34
0.0
 15
0.0
 25
0.0
 35
0.0
146
0.0
 13
0.0
 23
0.0
 33
0.0
 16
1.0
 26
0.0
 36
0.0
 17
0.0
 27
1.0
 37
0.0
 76
     0
330
23
  0
LAYOUT
  5
22
102
{ACAD_REACTORS
330
1A
102
}
330
1A
100
AcDbPlotSettings
  1

  2
none_device
  4

  6

 40
0.0
 41
0.0
 42
0.0
 43
0.0
 44
0.0
 45
0.0
 46
0.0
 47
0.0
 48
0.0
 49
0.0
140
0.0
141
0.0
142
1.0
143
1.0
 70
  1712
 72
     0
 73
     0
 74
     0
  7

 75
     0
 76
     0
 77
     2
 78
   300
147
1.0
148
0.0
149
0.0
100
AcDbLayout
  1
Model
 70
     1
 71
     0
 10
0.0
 20
0.0
 11
420.0
 21
297.0
 12
0.0
 22
0.0
 32
0.0
 14
1.0
 24
0.0
 34
0.0
 15
73.0
 25
41.0
 35
0.0
146
0.0
 13
0.0
 23
0.0
 33
0.0
 16
1.0
 26
0.0
 36
0.0
 17
0.0
 27
1.0
 37
0.0
 76
     0
330
1F
331
29
  0
MATERIAL
  5
3D
102
{ACAD_REACTORS
330
3B
102
}
330
3B
100
AcDbMaterial
  1
ByBlock
 72
     1
 94
      127
  0
MATERIAL
  5
3C
102
{ACAD_REACTORS
330
3B
102
}
330
3B
100
AcDbMaterial
  1
ByLayer
 72
     1
 94
      127
  0
MATERIAL
  5
3E
102
{ACAD_REACTORS
330
3B
102
}
330
3B
100
AcDbMaterial
  1
Global
 72
     1
 94
      127
  0
MLINESTYLE
  5
18
102
{ACAD_REACTORS
330
17
102
}
330
17
100
AcDbMlineStyle
  2
Standard
 70
     0
  3

 62
   256
 51
90.0
 52
90.0
 71
     2
 49
0.5
 62
   256
  6
BYLAYER
 49
-0.5
 62
   256
  6
BYLAYER
  0
ACDBPLACEHOLDER
  5
F
102
{ACAD_REACTORS
330
E
102
}
330
E
  0
VISUALSTYLE
  5
2F
102
{ACAD_REACTORS
330
2A
102
}
330
2A
100
AcDbVisualStyle
  2
2dWireframe
 70
     4
177
     2
291
     0
 71
     0
176
     1
 72
     2
176
     1
 73
     0
176
     1
 90
        0
176
     1
 40
-0.6
176
     1
 41
-30.0
176
     1
 62
     5
 63
     7
421
 16777215
176
     1
 74
     1
176
     1
 91
        4
176
     1
 64
     7
176
     1
 65
   257
176
     1
 75
     1
176
     1
175
     1
176
     1
 42
1.0
176
     1
 92
        0
176
     1
 66
   257
176
     1
 43
1.0
176
     1
 76
     1
176
     1
 77
     6
176
     1
 78
     2
176
     1
 67
     7
176
     1
 79
     5
176
     1
170
     0
176
     1
171
     0
176
     1
290
     0
176
     1
 93
        1
176
     1
 44
0.0
176
     1
173
     0
176
     1
  0
VISUALSTYLE
  5
31
102
{ACAD_REACTORS
330
2A
102
}
330
2A
100
AcDbVisualStyle
  2
3D Hidden
 70
     6
177
     2
291
     0
 71
     1
176
     1
 72
     2
176
     1
 73
     2
176
     1
 90
        0
176
     1
 40
-0.6
176
     1
 41
-30.0
176
     1
 62
     5
 63
     7
421
 16777215
176
     1
 74
     2
176
     1
 91
        2
176
     1
 64
     7
176
     1
 65
   257
176
     1
 75
     2
176
     1
175
     1
176
     1
 42
40.0
176
     1
 92
        0
176
     1
 66
   257
176
     1
 43
1.0
176
     1
 76
     1
176
     1
 77
     6
176
     1
 78
     2
176
     1
 67
     7
176
     1
 79
     3
176
     1
170
     0
176
     1
171
     0
176
     1
290
     0
176
     1
 93
        1
176
     1
 44
0.0
176
     1
173
     0
176
     1
  0
VISUALSTYLE
  5
30
102
{ACAD_REACTORS
330
2A
102
}
330
2A
100
AcDbVisualStyle
  2
3dWireframe
 70
     5
177
     2
291
     0
 71
     0
176
     1
 72
     2
176
     1
 73
     0
176
     1
 90
        0
176
     1
 40
-0.6
176
     1
 41
-30.0
176
     1
 62
     5
 63
     7
421
 16777215
176
     1
 74
     1
176
     1
 91
        4
176
     1
 64
     7
176
     1
 65
   257
176
     1
 75
     1
176
     1
175
     1
176
     1
 42
1.0
176
     1
 92
        0
176
     1
 66
   257
176
     1
 43
1.0
176
     1
 76
     1
176
     1
 77
     6
176
     1
 78
     2
176
     1
 67
     7
176
     1
 79
     5
176
     1
170
     0
176
     1
171
     0
176
     1
290
     0
176
     1
 93
        1
176
     1
 44
0.0
176
     1
173
     0
176
     1
  0
VISUALSTYLE
  5
32
102
{ACAD_REACTORS
330
2A
102
}
330
2A
100
AcDbVisualStyle
  2
Basic
 70
     7
177
     2
291
     1
 71
     1
176
     1
 72
     0
176
     1
 73
     1
176
     1
 90
        0
176
     1
 40
-0.6
176
     1
 41
-30.0
176
     1
 62
     5
 63
     7
421
 16777215
176
     1
 74
     0
176
     1
 91
        4
176
     1
 64
     7
176
     1
 65
   257
176
     1
 75
     1
176
     1
175
     1
176
     1
 42
1.0
176
     1
 92
        8
176
     1
 66
     7
176
     1
 43
1.0
176
     1
 76
     1
176
     1
 77
     6
176
     1
 78
     2
176
     1
 67
     7
176
     1
 79
     5
176
     1
170
     0
176
     1
171
     0
176
     1
290
     0
176
     1
 93
        1
176
     1
 44
0.0
176
     1
173
     0
176
     1
  0
VISUALSTYLE
  5
36
102
{ACAD_REACTORS
330
2A
102
}
330
2A
100
AcDbVisualStyle
  2
Brighten
 70
    12
177
     2
291
     1
 71
     2
176
     1
 72
     2
176
     1
 73
     0
176
     1
 90
        0
176
     1
 40
-0.6
176
     1
 41
-30.0
176
     1
 62
     5
 63
     7
421
 16777215
176
     1
 74
     1
176
     1
 91
        4
176
     1
 64
     7
176
     1
 65
   257
176
     1
 75
     1
176
     1
175
     1
176
     1
 42
1.0
176
     1
 92
        8
176
     1
 66
     7
176
     1
 43
1.0
176
     1
 76
     1
176
     1
 77
     6
176
     1
 78
     2
176
     1
 67
     7
176
     1
 79
     5
176
     1
170
     0
176
     1
171
     0
176
     1
290
     0
176
     1
 93
        1
176
     1
 44
50.0
176
     1
173
     0
176
     1
  0
VISUALSTYLE
  5
3A
102
{ACAD_REACTORS
330
2A
102
}
330
2A
100
AcDbVisualStyle
  2
ColorChange
 70
    16
177
     2
291
     1
 71
     2
176
     1
 72
     2
176
     1
 73
     3
176
     1
 90
        0
176
     1
 40
-0.6
176
     1
 41
-30.0
176
     1
 62
     5
 63
     8
421
  8421504
176
     1
 74
     1
176
     1
 91
        4
176
     1
 64
     7
176
     1
 65
   257
176
     1
 75
     1
176
     1
175
     1
176
     1
 42
1.0
176
     1
 92
        8
176
     1
 66
     8
424
  8421504
176
     1
 43
1.0
176
     1
 76
     1
176
     1
 77
     6
176
     1
 78
     2
176
     1
 67
     7
176
     1
 79
     5
176
     1
170
     0
176
     1
171
     0
176
     1
290
     0
176
     1
 93
        1
176
     1
 44
0.0
176
     1
173
     0
176
     1
  0
VISUALSTYLE
  5
34
102
{ACAD_REACTORS
330
2A
102
}
330
2A
100
AcDbVisualStyle
  2
Conceptual
 70
     9
177
     2
291
     0
 71
     3
176
     1
 72
     2
176
     1
 73
     0
176
     1
 90
        0
176
     1
 40
-0.6
176
     1
 41
-30.0
176
     1
 62
     5
 63
     7
421
 16777215
176
     1
 74
     2
176
     1
 91
        2
176
     1
 64
     7
176
     1
 65
   257
176
     1
 75
     1
176
     1
175
     1
176
     1
 42
40.0
176
     1
 92
        8
176
     1
 66
     7
176
     1
 43
1.0
176
     1
 76
     1
176
     1
 77
     6
176
     1
 78
     2
176
     1
 67
     7
176
     1
 79
     3
176
     1
170
     0
176
     1
171
     0
176
     1
290
     0
176
     1
 93
        1
176
     1
 44
0.0
176
     1
173
     0
176
     1
  0
VISUALSTYLE
  5
35
102
{ACAD_REACTORS
330
2A
102
}
330
2A
100
AcDbVisualStyle
  2
Dim
 70
    11
177
     2
291
     1
 71
     2
176
     1
 72
     2
176
     1
 73
     0
176
     1
 90
        0
176
     1
 40
-0.6
176
     1
 41
-30.0
176
     1
 62
     5
 63
     7
421
 16777215
176
     1
 74
     1
176
     1
 91
        4
176
     1
 64
     7
176
     1
 65
   257
176
     1
 75
     1
176
     1
175
     1
176
     1
 42
1.0
176
     1
 92
        8
176
     1
 66
     7
176
     1
 43
1.0
176
     1
 76
     1
176
     1
 77
     6
176
     1
 78
     2
176
     1
 67
     7
176
     1
 79
     5
176
     1
170
     0
176
     1
171
     0
176
     1
290
     0
176
     1
 93
        1
176
     1
 44
-50.0
176
     1
173
     0
176
     1
  0
VISUALSTYLE
  5
39
102
{ACAD_REACTORS
330
2A
102
}
330
2A
100
AcDbVisualStyle
  2
Facepattern
 70
    15
177
     2
291
     1
 71
     2
176
     1
 72
     2
176
     1
 73
     0
176
     1
 90
        0
176
     1
 40
-0.6
176
     1
 41
-30.0
176
     1
 62
     5
 63
     7
421
 16777215
176
     1
 74
     1
176
     1
 91
        4
176
     1
 64
     7
176
     1
 65
   257
176
     1
 75
     1
176
     1
175
     1
176
     1
 42
1.0
176
     1
 92
        8
176
     1
 66
     7
176
     1
 43
1.0
176
     1
 76
     1
176
     1
 77
     6
176
     1
 78
     2
176
     1
 67
     7
176
     1
 79
     5
176
     1
170
     0
176
     1
171
     0
176
     1
290
     0
176
     1
 93
        1
176
     1
 44
0.0
176
     1
173
     0
176
     1
  0
VISUALSTYLE
  5
2B
102
{ACAD_REACTORS
330
2A
102
}
330
2A
100
AcDbVisualStyle
  2
Flat
 70
     0
177
     2
291
     1
 71
     2
176
     1
 72
     1
176
     1
 73
     1
176
     1
 90
        2
176
     1
 40
-0.6
176
     1
 41
30.0
176
     1
 62
     5
 63
     7
421
 16777215
176
     1
 74
     0
176
     1
 91
        4
176
     1
 64
     7
176
     1
 65
   257
176
     1
 75
     1
176
     1
175
     1
176
     1
 42
1.0
176
     1
 92
        8
176
     1
 66
     7
176
     1
 43
1.0
176
     1
 76
     1
176
     1
 77
     6
176
     1
 78
     2
176
     1
 67
     7
176
     1
 79
     5
176
     1
170
     0
176
     1
171
     0
176
     1
290
     0
176
     1
 93
       13
176
     1
 44
0.0
176
     1
173
     0
176
     1
  0
VISUALSTYLE
  5
2C
102
{ACAD_REACTORS
330
2A
102
}
330
2A
100
AcDbVisualStyle
  2
FlatWithEdges
 70
     1
177
     2
291
     1
 71
     2
176
     1
 72
     1
176
     1
 73
     1
176
     1
 90
        2
176
     1
 40
-0.6
176
     1
 41
30.0
176
     1
 62
     5
 63
     7
421
 16777215
176
     1
 74
     1
176
     1
 91
        4
176
     1
 64
     7
176
     1
 65
   257
176
     1
 75
     1
176
     1
175
     1
176
     1
 42
1.0
176
     1
 92
        0
176
     1
 66
   257
176
     1
 43
1.0
176
     1
 76
     1
176
     1
 77
     6
176
     1
 78
     2
176
     1
 67
     7
176
     1
 79
     5
176
     1
170
     0
176
     1
171
     0
176
     1
290
     0
176
     1
 93
       13
176
     1
 44
0.0
176
     1
173
     0
176
     1
  0
VISUALSTYLE
  5
2D
102
{ACAD_REACTORS
330
2A
102
}
330
2A
100
AcDbVisualStyle
  2
Gouraud
 70
     2
177
     2
291
     1
 71
     2
176
     1
 72
     2
176
     1
 73
     1
176
     1
 90
        2
176
     1
 40
-0.6
176
     1
 41
30.0
176
     1
 62
     5
 63
     7
421
 16777215
176
     1
 74
     0
176
     1
 91
        4
176
     1
 64
     7
176
     1
 65
   257
176
     1
 75
     1
176
     1
175
     1
176
     1
 42
1.0
176
     1
 92
        0
176
     1
 66
     7
176
     1
 43
1.0
176
     1
 76
     1
176
     1
 77
     6
176
     1
 78
     2
176
     1
 67
     7
176
     1
 79
     5
176
     1
170
     0
176
     1
171
     0
176
     1
290
     0
176
     1
 93
       13
176
     1
 44
0.0
176
     1
173
     0
176
     1
  0
VISUALSTYLE
  5
2E
102
{ACAD_REACTORS
330
2A
102
}
330
2A
100
AcDbVisualStyle
  2
GouraudWithEdges
 70
     3
177
     2
291
     1
 71
     2
176
     1
 72
     2
176
     1
 73
     1
176
     1
 90
        2
176
     1
 40
-0.6
176
     1
 41
30.0
176
     1
 62
     5
 63
     7
421
 16777215
176
     1
 74
     1
176
     1
 91
        4
176
     1
 64
     7
176
     1
 65
   257
176
     1
 75
     1
176
     1
175
     1
176
     1
 42
1.0
176
     1
 92
        0
176
     1
 66
   257
176
     1
 43
1.0
176
     1
 76
     1
176
     1
 77
     6
176
     1
 78
     2
176
     1
 67
     7
176
     1
 79
     5
176
     1
170
     0
176
     1
171
     0
176
     1
290
     0
176
     1
 93
       13
176
     1
 44
0.0
176
     1
173
     0
176
     1
  0
VISUALSTYLE
  5
38
102
{ACAD_REACTORS
330
2A
102
}
330
2A
100
AcDbVisualStyle
  2
Linepattern
 70
    14
177
     2
291
     1
 71
     2
176
     1
 72
     2
176
     1
 73
     0
176
     1
 90
        0
176
     1
 40
-0.6
176
     1
 41
-30.0
176
     1
 62
     5
 63
     7
421
 16777215
176
     1
 74
     1
176
     1
 91
        4
176
     1
 64
     7
176
     1
 65
   257
176
     1
 75
     7
176
     1
175
     7
176
     1
 42
1.0
176
     1
 92
        8
176
     1
 66
     7
176
     1
 43
1.0
176
     1
 76
     1
176
     1
 77
     6
176
     1
 78
     2
176
     1
 67
     7
176
     1
 79
     5
176
     1
170
     0
176
     1
171
     0
176
     1
290
     0
176
     1
 93
        1
176
     1
 44
0.0
176
     1
173
     0
176
     1
  0
VISUALSTYLE
  5
33
102
{ACAD_REACTORS
330
2A
102
}
330
2A
100
AcDbVisualStyle
  2
Realistic
 70
     8
177
     2
291
     0
 71
     2
176
     1
 72
     2
176
     1
 73
     0
176
     1
 90
        0
176
     1
 40
-0.6
176
     1
 41
-30.0
176
     1
 62
     5
 63
     7
421
 16777215
176
     1
 74
     1
176
     1
 91
        0
176
     1
 64
     7
176
     1
 65
   257
176
     1
 75
     1
176
     1
175
     1
176
     1
 42
1.0
176
     1
 92
        8
176
     1
 66
     8
424
  7895160
176
     1
 43
1.0
176
     1
 76
     1
176
     1
 77
     6
176
     1
 78
     2
176
     1
 67
     7
176
     1
 79
     5
176
     1
170
     0
176
     1
171
     0
176
     1
290
     0
176
     1
 93
       13
176
     1
 44
0.0
176
     1
173
     0
176
     1
  0
VISUALSTYLE
  5
37
102
{ACAD_REACTORS
330
2A
102
}
330
2A
100
AcDbVisualStyle
  2
Thicken
 70
    13
177
     2
291
     1
 71
     2
176
     1
 72
     2
176
     1
 73
     0
176
     1
 90
        0
176
     1
 40
-0.6
176
     1
 41
-30.0
176
     1
 62
     5
 63
     7
421
 16777215
176
     1
 74
     1
176
     1
 91
        4
176
     1
 64
     7
176
     1
 65
   257
176
     1
 75
     1
176
     1
175
     1
176
     1
 42
1.0
176
     1
 92
       12
176
     1
 66
     7
176
     1
 43
1.0
176
     1
 76
     1
176
     1
 77
     6
176
     1
 78
     2
176
     1
 67
     7
176
     1
 79
     5
176
     1
170
     0
176
     1
171
     0
176
     1
290
     0
176
     1
 93
        1
176
     1
 44
0.0
176
     1
173
     0
176
     1
  0
ENDSEC
0
EOF
