  0
SECTION
  2
HEADER
  9
$ACADVER
  1
AC1027
  9
$ACADMAINTVER
 70
     8
  9
$DWGCODEPAGE
  3
ANSI_1252
  9
$REQUIREDVERSIONS
160
                 0
  9
$INSBASE
 10
0.0
 20
0.0
 30
0.0
  9
$EXTMIN
 10
0.0
 20
0.0
 30
0.0
  9
$EXTMAX
 10
3056453.8786301
 20
3043598.8881013
 30
0.0
  9
$LIMMIN
 10
0.0
 20
0.0
  9
$LIMMAX
 10
420.0
 20
297.0
  9
$ORTHOMODE
 70
     0
  9
$REGENMODE
 70
     1
  9
$FILLMODE
 70
     1
  9
$QTEXTMODE
 70
     0
  9
$MIRRTEXT
 70
     1
  9
$LTSCALE
 40
1.0
  9
$ATTMODE
 70
     1
  9
$TEXTSIZE
 40
2.5
  9
$TRACEWID
 40
1.0
  9
$TEXTSTYLE
  7
Standard
  9
$CLAYER
  8
input_beam_width
  9
$CELTYPE
  6
ByLayer
  9
$CECOLOR
 62
   256
  9
$CELTSCALE
 40
1.0
  9
$DISPSILH
 70
     0
  9
$DIMSCALE
 40
1.0
  9
$DIMASZ
 40
2.5
  9
$DIMEXO
 40
0.625
  9
$DIMDLI
 40
3.75
  9
$DIMRND
 40
0.0
  9
$DIMDLE
 40
0.0
  9
$DIMEXE
 40
1.25
  9
$DIMTP
 40
0.0
  9
$DIMTM
 40
0.0
  9
$DIMTXT
 40
2.5
  9
$DIMCEN
 40
2.5
  9
$DIMTSZ
 40
0.0
  9
$DIMTOL
 70
     0
  9
$DIMLIM
 70
     0
  9
$DIMTIH
 70
     0
  9
$DIMTOH
 70
     0
  9
$DIMSE1
 70
     0
  9
$DIMSE2
 70
     0
  9
$DIMTAD
 70
     1
  9
$DIMZIN
 70
     8
  9
$DIMBLK
  1

  9
$DIMASO
 70
     1
  9
$DIMSHO
 70
     1
  9
$DIMPOST
  1

  9
$DIMAPOST
  1

  9
$DIMALT
 70
     0
  9
$DIMALTD
 70
     3
  9
$DIMALTF
 40
0.03937007874016
  9
$DIMLFAC
 40
1.0
  9
$DIMTOFL
 70
     1
  9
$DIMTVP
 40
0.0
  9
$DIMTIX
 70
     0
  9
$DIMSOXD
 70
     0
  9
$DIMSAH
 70
     0
  9
$DIMBLK1
  1

  9
$DIMBLK2
  1

  9
$DIMSTYLE
  2
ISO-25
  9
$DIMCLRD
 70
     0
  9
$DIMCLRE
 70
     0
  9
$DIMCLRT
 70
     0
  9
$DIMTFAC
 40
1.0
  9
$DIMGAP
 40
0.625
  9
$DIMJUST
 70
     0
  9
$DIMSD1
 70
     0
  9
$DIMSD2
 70
     0
  9
$DIMTOLJ
 70
     0
  9
$DIMTZIN
 70
     8
  9
$DIMALTZ
 70
     0
  9
$DIMALTTZ
 70
     0
  9
$DIMUPT
 70
     0
  9
$DIMDEC
 70
     2
  9
$DIMTDEC
 70
     2
  9
$DIMALTU
 70
     2
  9
$DIMALTTD
 70
     3
  9
$DIMTXSTY
  7
Standard
  9
$DIMAUNIT
 70
     0
  9
$DIMADEC
 70
     0
  9
$DIMALTRND
 40
0.0
  9
$DIMAZIN
 70
     0
  9
$DIMDSEP
 70
    44
  9
$DIMATFIT
 70
     3
  9
$DIMFRAC
 70
     0
  9
$DIMLDRBLK
  1

  9
$DIMLUNIT
 70
     2
  9
$DIMLWD
 70
    -2
  9
$DIMLWE
 70
    -2
  9
$DIMTMOVE
 70
     0
  9
$DIMFXL
 40
1.0
  9
$DIMFXLON
 70
     0
  9
$DIMJOGANG
 40
0.7853981633974483
  9
$DIMTFILL
 70
     0
  9
$DIMTFILLCLR
 70
     0
  9
$DIMARCSYM
 70
     0
  9
$DIMLTYPE
  6

  9
$DIMLTEX1
  6

  9
$DIMLTEX2
  6

  9
$DIMTXTDIRECTION
 70
     0
  9
$LUNITS
 70
     2
  9
$LUPREC
 70
     4
  9
$SKETCHINC
 40
1.0
  9
$FILLETRAD
 40
10.0
  9
$AUNITS
 70
     0
  9
$AUPREC
 70
     0
  9
$MENU
  1
.
  9
$ELEVATION
 40
0.0
  9
$PELEVATION
 40
0.0
  9
$THICKNESS
 40
0.0
  9
$LIMCHECK
 70
     0
  9
$CHAMFERA
 40
0.0
  9
$CHAMFERB
 40
0.0
  9
$CHAMFERC
 40
0.0
  9
$CHAMFERD
 40
0.0
  9
$SKPOLY
 70
     0
  9
$TDCREATE
 40
2456696.578136562
  9
$TDUCREATE
 40
2456696.203136574
  9
$TDUPDATE
 40
2456696.578136562
  9
$TDUUPDATE
 40
2456696.203136574
  9
$TDINDWG
 40
0.0000000116
  9
$TDUSRTIMER
 40
0.0000000116
  9
$USRTIMER
 70
     1
  9
$ANGBASE
 50
0.0
  9
$ANGDIR
 70
     0
  9
$PDMODE
 70
     0
  9
$PDSIZE
 40
0.0
  9
$PLINEWID
 40
0.0
  9
$SPLFRAME
 70
     0
  9
$SPLINETYPE
 70
     6
  9
$SPLINESEGS
 70
     8
  9
$HANDSEED
  5
43E
  9
$SURFTAB1
 70
     6
  9
$SURFTAB2
 70
     6
  9
$SURFTYPE
 70
     6
  9
$SURFU
 70
     6
  9
$SURFV
 70
     6
  9
$UCSBASE
  2

  9
$UCSNAME
  2

  9
$UCSORG
 10
0.0
 20
0.0
 30
0.0
  9
$UCSXDIR
 10
1.0
 20
0.0
 30
0.0
  9
$UCSYDIR
 10
0.0
 20
1.0
 30
0.0
  9
$UCSORTHOREF
  2

  9
$UCSORTHOVIEW
 70
     0
  9
$UCSORGTOP
 10
0.0
 20
0.0
 30
0.0
  9
$UCSORGBOTTOM
 10
0.0
 20
0.0
 30
0.0
  9
$UCSORGLEFT
 10
0.0
 20
0.0
 30
0.0
  9
$UCSORGRIGHT
 10
0.0
 20
0.0
 30
0.0
  9
$UCSORGFRONT
 10
0.0
 20
0.0
 30
0.0
  9
$UCSORGBACK
 10
0.0
 20
0.0
 30
0.0
  9
$PUCSBASE
  2

  9
$PUCSNAME
  2

  9
$PUCSORG
 10
0.0
 20
0.0
 30
0.0
  9
$PUCSXDIR
 10
1.0
 20
0.0
 30
0.0
  9
$PUCSYDIR
 10
0.0
 20
1.0
 30
0.0
  9
$PUCSORTHOREF
  2

  9
$PUCSORTHOVIEW
 70
     0
  9
$PUCSORGTOP
 10
0.0
 20
0.0
 30
0.0
  9
$PUCSORGBOTTOM
 10
0.0
 20
0.0
 30
0.0
  9
$PUCSORGLEFT
 10
0.0
 20
0.0
 30
0.0
  9
$PUCSORGRIGHT
 10
0.0
 20
0.0
 30
0.0
  9
$PUCSORGFRONT
 10
0.0
 20
0.0
 30
0.0
  9
$PUCSORGBACK
 10
0.0
 20
0.0
 30
0.0
  9
$USERI1
 70
     0
  9
$USERI2
 70
     0
  9
$USERI3
 70
     0
  9
$USERI4
 70
     0
  9
$USERI5
 70
     0
  9
$USERR1
 40
0.0
  9
$USERR2
 40
0.0
  9
$USERR3
 40
0.0
  9
$USERR4
 40
0.0
  9
$USERR5
 40
0.0
  9
$WORLDVIEW
 70
     1
  9
$SHADEDGE
 70
     3
  9
$SHADEDIF
 70
    70
  9
$TILEMODE
 70
     1
  9
$MAXACTVP
 70
    64
  9
$PINSBASE
 10
0.0
 20
0.0
 30
0.0
  9
$PLIMCHECK
 70
     0
  9
$PEXTMIN
 10
1.000000000000000E+20
 20
1.000000000000000E+20
 30
1.000000000000000E+20
  9
$PEXTMAX
 10
-1.000000000000000E+20
 20
-1.000000000000000E+20
 30
-1.000000000000000E+20
  9
$PLIMMIN
 10
0.0
 20
0.0
  9
$PLIMMAX
 10
420.0
 20
297.0
  9
$UNITMODE
 70
     0
  9
$VISRETAIN
 70
     1
  9
$PLINEGEN
 70
     0
  9
$PSLTSCALE
 70
     1
  9
$TREEDEPTH
 70
  3020
  9
$CMLSTYLE
  2
Standard
  9
$CMLJUST
 70
     0
  9
$CMLSCALE
 40
20.0
  9
$PROXYGRAPHICS
 70
     1
  9
$MEASUREMENT
 70
     1
  9
$CELWEIGHT
370
    -1
  9
$ENDCAPS
280
     0
  9
$JOINSTYLE
280
     0
  9
$LWDISPLAY
290
     0
  9
$INSUNITS
 70
     4
  9
$HYPERLINKBASE
  1

  9
$STYLESHEET
  1

  9
$XEDIT
290
     1
  9
$CEPSNTYPE
380
     0
  9
$PSTYLEMODE
290
     1
  9
$FINGERPRINTGUID
  2
{E587A2E5-49CE-60C0-FA31-B9ED821BF8E2}
  9
$VERSIONGUID
  2
{FAEB1C32-E019-11D5-929B-00C0DF256EC4}
  9
$EXTNAMES
290
     1
  9
$PSVPSCALE
 40
0.0
  9
$OLESTARTUP
290
     0
  9
$SORTENTS
280
   127
  9
$INDEXCTL
280
     0
  9
$HIDETEXT
280
     1
  9
$XCLIPFRAME
280
     2
  9
$HALOGAP
280
     0
  9
$OBSCOLOR
 70
   257
  9
$OBSLTYPE
280
     0
  9
$INTERSECTIONDISPLAY
280
     0
  9
$INTERSECTIONCOLOR
 70
   257
  9
$DIMASSOC
280
     2
  9
$PROJECTNAME
  1

  9
$CAMERADISPLAY
290
     0
  9
$LENSLENGTH
 40
50.0
  9
$CAMERAHEIGHT
 40
0.0
  9
$STEPSPERSEC
 40
2.0
  9
$STEPSIZE
 40
6.0
  9
$3DDWFPREC
 40
2.0
  9
$PSOLWIDTH
 40
5.0
  9
$PSOLHEIGHT
 40
80.0
  9
$LOFTANG1
 40
1.570796326794897
  9
$LOFTANG2
 40
1.570796326794897
  9
$LOFTMAG1
 40
0.0
  9
$LOFTMAG2
 40
0.0
  9
$LOFTPARAM
 70
     7
  9
$LOFTNORMALS
280
     1
  9
$LATITUDE
 40
37.795
  9
$LONGITUDE
 40
-122.394
  9
$NORTHDIRECTION
 40
0.0
  9
$TIMEZONE
 70
 -8000
  9
$LIGHTGLYPHDISPLAY
280
     1
  9
$TILEMODELIGHTSYNCH
280
     1
  9
$CMATERIAL
347
44
  9
$SOLIDHIST
280
     1
  9
$SHOWHIST
280
     1
  9
$DWFFRAME
280
     2
  9
$DGNFRAME
280
     2
  9
$REALWORLDSCALE
290
     1
  9
$INTERFERECOLOR
 62
   256
  9
$CSHADOW
280
     0
  9
$SHADOWPLANELOCATION
 40
0.0
  0
ENDSEC
  0
SECTION
  2
CLASSES
  0
CLASS
  1
ACDBDICTIONARYWDFLT
  2
AcDbDictionaryWithDefault
  3
ObjectDBX Classes
 90
        0
 91
        4
280
     0
281
     0
  0
CLASS
  1
VISUALSTYLE
  2
AcDbVisualStyle
  3
ObjectDBX Classes
 90
     4095
 91
        4
280
     0
281
     0
  0
CLASS
  1
MATERIAL
  2
AcDbMaterial
  3
ObjectDBX Classes
 90
     1153
 91
        4
280
     0
281
     0
  0
CLASS
  1
SCALE
  2
AcDbScale
  3
ObjectDBX Classes
 90
     1153
 91
        4
280
     0
281
     0
  0
CLASS
  1
SUN
  2
AcDbSun
  3
SCENEOE
 90
     1153
 91
        4
280
     0
281
     0
  0
CLASS
  1
DICTIONARYVAR
  2
AcDbDictionaryVar
  3
ObjectDBX Classes
 90
        0
 91
        4
280
     0
281
     0
  0
ENDSEC
  0
SECTION
  2
TABLES
  0
TABLE
  2
VPORT
  5
8
330
0
100
AcDbSymbolTable
 70
     1
  0
VPORT
  5
29
330
8
100
AcDbSymbolTableRecord
100
AcDbViewportTableRecord
  2
*Active
 70
     0
 10
0.0
 20
0.0
 11
1.0
 21
1.0
 12
5779.674808201456
 22
20437.31101133201
 13
0.0
 23
0.0
 14
10.0
 24
10.0
 15
10.0
 25
10.0
 16
0.0
 26
0.0
 36
1.0
 17
0.0
 27
0.0
 37
0.0
 40
1147.600975720068
 41
1.996674057649662
 42
50.0
 43
0.0
 44
0.0
 50
0.0
 51
0.0
 71
     0
 72
   100
 73
     1
 74
     3
 75
     0
 76
     0
 77
     0
 78
     0
281
     0
 65
     1
110
0.0
120
0.0
130
0.0
111
1.0
121
0.0
131
0.0
112
0.0
122
1.0
132
0.0
 79
     0
146
0.0
 60
     3
 61
     5
292
     1
282
     1
141
0.0
142
0.0
 63
   250
361
69
  0
ENDTAB
  0
TABLE
  2
LTYPE
  5
5
330
0
100
AcDbSymbolTable
 70
     7
  0
LTYPE
  5
14
330
5
100
AcDbSymbolTableRecord
100
AcDbLinetypeTableRecord
  2
ByBlock
 70
     0
  3

 72
    65
 73
     0
 40
0.0
  0
LTYPE
  5
15
330
5
100
AcDbSymbolTableRecord
100
AcDbLinetypeTableRecord
  2
ByLayer
 70
     0
  3

 72
    65
 73
     0
 40
0.0
  0
LTYPE
  5
16
330
5
100
AcDbSymbolTableRecord
100
AcDbLinetypeTableRecord
  2
Continuous
 70
     0
  3
Solid line
 72
    65
 73
     0
 40
0.0
  0
LTYPE
  5
6A
330
5
100
AcDbSymbolTableRecord
100
AcDbLinetypeTableRecord
  2
DOT
 70
     0
  3
Dot . . . . . . . . . . . . . . . . . . . . . . . .
 72
    65
 73
     2
 40
2.032
 49
1.016
 74
     0
 49
-1.016
 74
     0
  0
LTYPE
  5
6B
330
5
100
AcDbSymbolTableRecord
100
AcDbLinetypeTableRecord
  2
CENTER
 70
     0
  3
Center ____ _ ____ _ ____ _ ____ _ ____ _ ____
 72
    65
 73
     4
 40
13.208
 49
8.128
 74
     0
 49
-1.524
 74
     0
 49
2.032
 74
     0
 49
-1.524
 74
     0
  0
LTYPE
  5
6C
330
5
100
AcDbSymbolTableRecord
100
AcDbLinetypeTableRecord
  2
HIDDEN2
 70
     0
  3
Hidden (.5x) _ _ _ _ _ _ _ _ _ _ _ _ _ _ _ _ _
 72
    65
 73
     2
 40
4.762499999999999
 49
3.175
 74
     0
 49
-1.5875
 74
     0
  0
LTYPE
  5
6D
330
5
100
AcDbSymbolTableRecord
100
AcDbLinetypeTableRecord
  2
DASHED
 70
     0
  3
Dashed __ __ __ __ __ __ __ __ __ __ __ __ __ _
 72
    65
 73
     2
 40
9.652
 49
8.128
 74
     0
 49
-1.524
 74
     0
  0
LTYPE
  5
6E
330
5
100
AcDbSymbolTableRecord
100
AcDbLinetypeTableRecord
  2
PHANTOM2
 70
     0
  3
Phantom (.5x) ___ _ _ ___ _ _ ___ _ _ ___ _ _
 72
    65
 73
     6
 40
14.732
 49
8.128
 74
     0
 49
-1.524
 74
     0
 49
1.016
 74
     0
 49
-1.524
 74
     0
 49
1.016
 74
     0
 49
-1.524
 74
     0
  0
LTYPE
  5
6F
330
5
100
AcDbSymbolTableRecord
100
AcDbLinetypeTableRecord
  2
DASHDOT
 70
     0
  3
Dash dot __ . __ . __ . __ . __ . __ . __ . __
 72
    65
 73
     4
 40
11.176
 49
8.128
 74
     0
 49
-1.524
 74
     0
 49
0.0
 74
     0
 49
-1.524
 74
     0
  0
ENDTAB
  0
TABLE
  2
LAYER
  5
2
330
0
100
AcDbSymbolTable
 70
    17
  0
LAYER
  5
10
330
2
100
AcDbSymbolTableRecord
100
AcDbLayerTableRecord
  2
0
 70
     0
 62
     7
  6
Continuous
370
    -3
390
F
347
46
348
0
  0
LAYER
  5
70
330
2
100
AcDbSymbolTableRecord
100
AcDbLayerTableRecord
  2
Default
 70
     0
 62
     7
  6
Continuous
370
    -3
390
F
347
46
348
0
  0
LAYER
  5
71
330
2
100
AcDbSymbolTableRecord
100
AcDbLayerTableRecord
  2
aux_lines
 70
     0
 62
     7
  6
Continuous
370
    -3
390
F
347
46
348
0
  0
LAYER
  5
72
330
2
100
AcDbSymbolTableRecord
100
AcDbLayerTableRecord
  2
Mirrors
 70
     0
 62
     7
  6
Continuous
370
    -3
390
F
347
46
348
0
  0
LAYER
  5
73
330
2
100
AcDbSymbolTableRecord
100
AcDbLayerTableRecord
  2
input_beam
 70
     0
 62
     7
  6
Continuous
370
    -3
390
F
347
46
348
0
  0
LAYER
  5
74
330
2
100
AcDbSymbolTableRecord
100
AcDbLayerTableRecord
  2
text
 70
     0
 62
     7
  6
Continuous
370
    -3
390
F
347
46
348
0
  0
LAYER
  5
75
330
2
100
AcDbSymbolTableRecord
100
AcDbLayerTableRecord
  2
main_beam
 70
     0
 62
     1
  6
Continuous
370
    -3
390
F
347
46
348
0
  0
LAYER
  5
76
330
2
100
AcDbSymbolTableRecord
100
AcDbLayerTableRecord
  2
aux_beam
 70
     0
 62
     3
  6
Continuous
370
    -3
390
F
347
46
348
0
  0
LAYER
  5
77
330
2
100
AcDbSymbolTableRecord
100
AcDbLayerTableRecord
  2
pox_beam
 70
     0
 62
     5
  6
Continuous
370
    -3
390
F
347
46
348
0
  0
LAYER
  5
78
330
2
100
AcDbSymbolTableRecord
100
AcDbLayerTableRecord
  2
poy_beam
 70
     0
 62
     5
  6
Continuous
370
    -3
390
F
347
46
348
0
  0
LAYER
  5
79
330
2
100
AcDbSymbolTableRecord
100
AcDbLayerTableRecord
  2
main_beam_width
 70
     0
 62
     6
  6
Continuous
370
    -3
390
F
347
46
348
0
  0
LAYER
  5
7A
330
2
100
AcDbSymbolTableRecord
100
AcDbLayerTableRecord
  2
Vacuum
 70
     0
 62
     7
  6
Continuous
370
    -3
390
F
347
46
348
0
  0
LAYER
  5
7B
330
2
100
AcDbSymbolTableRecord
100
AcDbLayerTableRecord
  2
poy_beam_width
 70
     0
 62
     4
  6
Continuous
370
    -3
390
F
347
46
348
0
  0
LAYER
  5
7C
330
2
100
AcDbSymbolTableRecord
100
AcDbLayerTableRecord
  2
aux_beam_width
 70
     0
 62
     4
  6
Continuous
370
    -3
390
F
347
46
348
0
  0
LAYER
  5
7D
330
2
100
AcDbSymbolTableRecord
100
AcDbLayerTableRecord
  2
pox_beam_width
 70
     0
 62
     4
  6
Continuous
370
    -3
390
F
347
46
348
0
  0
LAYER
  5
7E
330
2
100
AcDbSymbolTableRecord
100
AcDbLayerTableRecord
  2
input_beam_width
 70
     0
 62
     7
  6
Continuous
370
    -3
390
F
347
46
348
0
  0
LAYER
  5
7F
330
2
100
AcDbSymbolTableRecord
100
AcDbLayerTableRecord
  2
OpLev
 70
     0
 62
     1
  6
Continuous
370
    -3
390
F
347
46
348
0
  0
ENDTAB
  0
TABLE
  2
STYLE
  5
3
330
0
100
AcDbSymbolTable
 70
    33
  0
STYLE
  5
11
330
3
100
AcDbSymbolTableRecord
100
AcDbTextStyleTableRecord
  2
Standard
 70
     0
 40
0.0
 41
1.0
 50
0.0
 71
     0
 42
2.5
  3
txt
  4

  0
STYLE
  5
80
330
3
100
AcDbSymbolTableRecord
100
AcDbTextStyleTableRecord
  2
VCDSTYLE01
 70
     0
 40
0.0
 41
1.0
 50
0.0
 71
     0
 42
2.5
  3
txt
  4

  0
STYLE
  5
81
330
3
100
AcDbSymbolTableRecord
100
AcDbTextStyleTableRecord
  2
VCDSTYLE02
 70
     0
 40
0.0
 41
1.0
 50
0.0
 71
     0
 42
2.5
  3
txt
  4

  0
STYLE
  5
82
330
3
100
AcDbSymbolTableRecord
100
AcDbTextStyleTableRecord
  2
VCDSTYLE03
 70
     0
 40
0.0
 41
1.0
 50
0.0
 71
     0
 42
2.5
  3
txt
  4

  0
STYLE
  5
83
330
3
100
AcDbSymbolTableRecord
100
AcDbTextStyleTableRecord
  2
VCDSTYLE04
 70
     0
 40
0.0
 41
1.0
 50
0.0
 71
     0
 42
2.5
  3
txt
  4

  0
STYLE
  5
84
330
3
100
AcDbSymbolTableRecord
100
AcDbTextStyleTableRecord
  2
VCDSTYLE05
 70
     0
 40
0.0
 41
1.0
 50
0.0
 71
     0
 42
2.5
  3
txt
  4

  0
STYLE
  5
85
330
3
100
AcDbSymbolTableRecord
100
AcDbTextStyleTableRecord
  2
VCDSTYLE06
 70
     0
 40
0.0
 41
1.0
 50
0.0
 71
     0
 42
2.5
  3
txt
  4

  0
STYLE
  5
86
330
3
100
AcDbSymbolTableRecord
100
AcDbTextStyleTableRecord
  2
VCDSTYLE07
 70
     0
 40
0.0
 41
1.0
 50
0.0
 71
     0
 42
2.5
  3
txt
  4

  0
STYLE
  5
87
330
3
100
AcDbSymbolTableRecord
100
AcDbTextStyleTableRecord
  2
VCDSTYLE08
 70
     0
 40
0.0
 41
1.0
 50
0.0
 71
     0
 42
2.5
  3
txt
  4

  0
STYLE
  5
88
330
3
100
AcDbSymbolTableRecord
100
AcDbTextStyleTableRecord
  2
VCDSTYLE09
 70
     0
 40
0.0
 41
1.0
 50
0.0
 71
     0
 42
2.5
  3
txt
  4

  0
STYLE
  5
89
330
3
100
AcDbSymbolTableRecord
100
AcDbTextStyleTableRecord
  2
VCDSTYLE10
 70
     0
 40
0.0
 41
1.0
 50
0.0
 71
     0
 42
2.5
  3
Sans Serif.ttf
  4

1001
ACAD
1000
Sans Serif
1071
        0
  0
STYLE
  5
8A
330
3
100
AcDbSymbolTableRecord
100
AcDbTextStyleTableRecord
  2
VCDSTYLE11
 70
     0
 40
0.0
 41
1.0
 50
0.0
 71
     0
 42
2.5
  3
Sans Serif.ttf
  4

1001
ACAD
1000
Sans Serif
1071
 16777216
  0
STYLE
  5
8B
330
3
100
AcDbSymbolTableRecord
100
AcDbTextStyleTableRecord
  2
VCDSTYLE12
 70
     0
 40
0.0
 41
1.0
 50
0.0
 71
     0
 42
2.5
  3
DejaVu Sans.ttf
  4

1001
ACAD
1000
DejaVu Sans
1071
        0
  0
STYLE
  5
8C
330
3
100
AcDbSymbolTableRecord
100
AcDbTextStyleTableRecord
  2
VCDSTYLE13
 70
     0
 40
0.0
 41
1.0
 50
0.0
 71
     0
 42
2.5
  3
DejaVu Sans.ttf
  4

1001
ACAD
1000
DejaVu Sans
1071
 16777216
  0
STYLE
  5
8D
330
3
100
AcDbSymbolTableRecord
100
AcDbTextStyleTableRecord
  2
VCDSTYLE14
 70
     0
 40
0.0
 41
1.0
 50
0.0
 71
     0
 42
2.5
  3
DejaVu Sans Mono.ttf
  4

1001
ACAD
1000
DejaVu Sans Mono
1071
        0
  0
STYLE
  5
8E
330
3
100
AcDbSymbolTableRecord
100
AcDbTextStyleTableRecord
  2
VCDSTYLE15
 70
     0
 40
0.0
 41
1.0
 50
0.0
 71
     0
 42
2.5
  3
DejaVu Sans Mono.ttf
  4

1001
ACAD
1000
DejaVu Sans Mono
1071
 16777216
  0
STYLE
  5
8F
330
3
100
AcDbSymbolTableRecord
100
AcDbTextStyleTableRecord
  2
VCDSTYLE16
 70
     0
 40
0.0
 41
1.0
 50
0.0
 71
     0
 42
2.5
  3
Sans Serif.ttf
  4

1001
ACAD
1000
Sans Serif
1071
        0
  0
STYLE
  5
90
330
3
100
AcDbSymbolTableRecord
100
AcDbTextStyleTableRecord
  2
VCDSTYLE17
 70
     0
 40
0.0
 41
1.0
 50
0.0
 71
     0
 42
2.5
  3
Sans Serif.ttf
  4

1001
ACAD
1000
Sans Serif
1071
 16777216
  0
STYLE
  5
91
330
3
100
AcDbSymbolTableRecord
100
AcDbTextStyleTableRecord
  2
VCDSTYLE18
 70
     0
 40
0.0
 41
1.0
 50
0.0
 71
     0
 42
2.5
  3
Sans Serif.ttf
  4

1001
ACAD
1000
Sans Serif
1071
        0
  0
STYLE
  5
92
330
3
100
AcDbSymbolTableRecord
100
AcDbTextStyleTableRecord
  2
VCDSTYLE19
 70
     0
 40
0.0
 41
1.0
 50
0.0
 71
     0
 42
2.5
  3
Sans Serif.ttf
  4

1001
ACAD
1000
Sans Serif
1071
 16777216
  0
STYLE
  5
93
330
3
100
AcDbSymbolTableRecord
100
AcDbTextStyleTableRecord
  2
VCDSTYLE20
 70
     0
 40
0.0
 41
1.0
 50
0.0
 71
     0
 42
2.5
  3
Sans Serif.ttf
  4

1001
ACAD
1000
Sans Serif
1071
        0
  0
STYLE
  5
94
330
3
100
AcDbSymbolTableRecord
100
AcDbTextStyleTableRecord
  2
VCDSTYLE21
 70
     0
 40
0.0
 41
1.0
 50
0.0
 71
     0
 42
2.5
  3
Sans Serif.ttf
  4

1001
ACAD
1000
Sans Serif
1071
 16777216
  0
STYLE
  5
95
330
3
100
AcDbSymbolTableRecord
100
AcDbTextStyleTableRecord
  2
VCDSTYLE22
 70
     0
 40
0.0
 41
1.0
 50
0.0
 71
     0
 42
2.5
  3
Monospace.ttf
  4

1001
ACAD
1000
Monospace
1071
        0
  0
STYLE
  5
96
330
3
100
AcDbSymbolTableRecord
100
AcDbTextStyleTableRecord
  2
VCDSTYLE23
 70
     0
 40
0.0
 41
1.0
 50
0.0
 71
     0
 42
2.5
  3
Monospace.ttf
  4

1001
ACAD
1000
Monospace
1071
 16777216
  0
STYLE
  5
97
330
3
100
AcDbSymbolTableRecord
100
AcDbTextStyleTableRecord
  2
VCDSTYLE24
 70
     0
 40
0.0
 41
1.0
 50
0.0
 71
     0
 42
2.5
  3
URW Gothic L.ttf
  4

1001
ACAD
1000
URW Gothic L
1071
        0
  0
STYLE
  5
98
330
3
100
AcDbSymbolTableRecord
100
AcDbTextStyleTableRecord
  2
VCDSTYLE25
 70
     0
 40
0.0
 41
1.0
 50
0.0
 71
     0
 42
2.5
  3
URW Gothic L.ttf
  4

1001
ACAD
1000
URW Gothic L
1071
 16777216
  0
STYLE
  5
99
330
3
100
AcDbSymbolTableRecord
100
AcDbTextStyleTableRecord
  2
VCDSTYLE26
 70
     0
 40
0.0
 41
1.0
 50
0.0
 71
     0
 42
2.5
  3
Waree.ttf
  4

1001
ACAD
1000
Waree
1071
        0
  0
STYLE
  5
9A
330
3
100
AcDbSymbolTableRecord
100
AcDbTextStyleTableRecord
  2
VCDSTYLE27
 70
     0
 40
0.0
 41
1.0
 50
0.0
 71
     0
 42
2.5
  3
Waree.ttf
  4

1001
ACAD
1000
Waree
1071
 16777216
  0
STYLE
  5
9B
330
3
100
AcDbSymbolTableRecord
100
AcDbTextStyleTableRecord
  2
VCDSTYLE28
 70
     0
 40
0.0
 41
1.0
 50
0.0
 71
     0
 42
2.5
  3
Nimbus Mono L.ttf
  4

1001
ACAD
1000
Nimbus Mono L
1071
        0
  0
STYLE
  5
9C
330
3
100
AcDbSymbolTableRecord
100
AcDbTextStyleTableRecord
  2
VCDSTYLE29
 70
     0
 40
0.0
 41
1.0
 50
0.0
 71
     0
 42
2.5
  3
Nimbus Sans L.ttf
  4

1001
ACAD
1000
Nimbus Sans L
1071
        0
  0
STYLE
  5
9D
330
3
100
AcDbSymbolTableRecord
100
AcDbTextStyleTableRecord
  2
VCDSTYLE30
 70
     0
 40
0.0
 41
1.0
 50
0.0
 71
     0
 42
2.5
  3
Nimbus Sans L.ttf
  4

1001
ACAD
1000
Nimbus Sans L
1071
 16777216
  0
STYLE
  5
9E
330
3
100
AcDbSymbolTableRecord
100
AcDbTextStyleTableRecord
  2
VCDSTYLE31
 70
     0
 40
0.0
 41
1.0
 50
0.0
 71
     0
 42
2.5
  3
Serif.ttf
  4

1001
ACAD
1000
Serif
1071
        0
  0
STYLE
  5
9F
330
3
100
AcDbSymbolTableRecord
100
AcDbTextStyleTableRecord
  2
VCDSTYLE32
 70
     0
 40
0.0
 41
1.0
 50
0.0
 71
     0
 42
2.5
  3
Serif.ttf
  4

1001
ACAD
1000
Serif
1071
 16777216
  0
ENDTAB
  0
TABLE
  2
VIEW
  5
6
330
0
100
AcDbSymbolTable
 70
     0
  0
ENDTAB
  0
TABLE
  2
UCS
  5
7
330
0
100
AcDbSymbolTable
 70
     0
  0
ENDTAB
  0
TABLE
  2
APPID
  5
9
330
0
100
AcDbSymbolTable
 70
     1
  0
APPID
  5
12
330
9
100
AcDbSymbolTableRecord
100
AcDbRegAppTableRecord
  2
ACAD
 70
     0
  0
ENDTAB
  0
TABLE
  2
DIMSTYLE
  5
A
330
0
100
AcDbSymbolTable
 70
     1
100
AcDbDimStyleTable
  0
DIMSTYLE
105
27
330
A
100
AcDbSymbolTableRecord
100
AcDbDimStyleTableRecord
  2
ISO-25
 70
     0
 41
2.5
 42
0.625
 43
3.75
 44
1.25
 73
     0
 74
     0
 77
     1
 78
     8
140
2.5
141
2.5
143
0.03937007874016
147
0.625
171
     3
172
     1
178
     0
271
     2
272
     2
274
     3
278
    44
283
     0
284
     8
340
11
  0
ENDTAB
  0
TABLE
  2
BLOCK_RECORD
  5
1
330
0
100
AcDbSymbolTable
 70
   148
  0
BLOCK_RECORD
  5
1F
330
1
100
AcDbSymbolTableRecord
100
AcDbBlockTableRecord
  2
*Model_Space
340
22
 70
     0
280
     1
281
     0
  0
BLOCK_RECORD
  5
1B
330
1
100
AcDbSymbolTableRecord
100
AcDbBlockTableRecord
  2
*Paper_Space
340
1E
 70
     0
280
     1
281
     0
  0
BLOCK_RECORD
  5
23
330
1
100
AcDbSymbolTableRecord
100
AcDbBlockTableRecord
  2
*Paper_Space0
340
26
 70
     0
280
     1
281
     0
  0
BLOCK_RECORD
  5
B5
330
1
100
AcDbSymbolTableRecord
100
AcDbBlockTableRecord
  2
#POLYLINE
340
0
102
{BLKREFS
331
B7
102
}
 70
     0
280
     1
281
     0
  0
BLOCK_RECORD
  5
BA
330
1
100
AcDbSymbolTableRecord
100
AcDbBlockTableRecord
  2
#POLYLINE(1)
340
0
102
{BLKREFS
331
BC
102
}
 70
     0
280
     1
281
     0
  0
BLOCK_RECORD
  5
BF
330
1
100
AcDbSymbolTableRecord
100
AcDbBlockTableRecord
  2
#POLYLINE(2)
340
0
102
{BLKREFS
331
C1
102
}
 70
     0
280
     1
281
     0
  0
BLOCK_RECORD
  5
C4
330
1
100
AcDbSymbolTableRecord
100
AcDbBlockTableRecord
  2
#POLYLINE(3)
340
0
102
{BLKREFS
331
C6
102
}
 70
     0
280
     1
281
     0
  0
BLOCK_RECORD
  5
C9
330
1
100
AcDbSymbolTableRecord
100
AcDbBlockTableRecord
  2
#POLYLINE(4)
340
0
102
{BLKREFS
331
CB
102
}
 70
     0
280
     1
281
     0
  0
BLOCK_RECORD
  5
CE
330
1
100
AcDbSymbolTableRecord
100
AcDbBlockTableRecord
  2
#POLYLINE(5)
340
0
102
{BLKREFS
331
D0
102
}
 70
     0
280
     1
281
     0
  0
BLOCK_RECORD
  5
D3
330
1
100
AcDbSymbolTableRecord
100
AcDbBlockTableRecord
  2
#POLYLINE(6)
340
0
102
{BLKREFS
331
D5
102
}
 70
     0
280
     1
281
     0
  0
BLOCK_RECORD
  5
D8
330
1
100
AcDbSymbolTableRecord
100
AcDbBlockTableRecord
  2
#POLYLINE(7)
340
0
102
{BLKREFS
331
DA
102
}
 70
     0
280
     1
281
     0
  0
BLOCK_RECORD
  5
DD
330
1
100
AcDbSymbolTableRecord
100
AcDbBlockTableRecord
  2
#POLYLINE(8)
340
0
102
{BLKREFS
331
DF
102
}
 70
     0
280
     1
281
     0
  0
BLOCK_RECORD
  5
E2
330
1
100
AcDbSymbolTableRecord
100
AcDbBlockTableRecord
  2
#POLYLINE(9)
340
0
102
{BLKREFS
331
E4
102
}
 70
     0
280
     1
281
     0
  0
BLOCK_RECORD
  5
E7
330
1
100
AcDbSymbolTableRecord
100
AcDbBlockTableRecord
  2
#POLYLINE(10)
340
0
102
{BLKREFS
331
E9
102
}
 70
     0
280
     1
281
     0
  0
BLOCK_RECORD
  5
EC
330
1
100
AcDbSymbolTableRecord
100
AcDbBlockTableRecord
  2
#POLYLINE(11)
340
0
102
{BLKREFS
331
EE
102
}
 70
     0
280
     1
281
     0
  0
BLOCK_RECORD
  5
F1
330
1
100
AcDbSymbolTableRecord
100
AcDbBlockTableRecord
  2
#POLYLINE(12)
340
0
102
{BLKREFS
331
F3
102
}
 70
     0
280
     1
281
     0
  0
BLOCK_RECORD
  5
F6
330
1
100
AcDbSymbolTableRecord
100
AcDbBlockTableRecord
  2
#POLYLINE(13)
340
0
102
{BLKREFS
331
F8
102
}
 70
     0
280
     1
281
     0
  0
BLOCK_RECORD
  5
FB
330
1
100
AcDbSymbolTableRecord
100
AcDbBlockTableRecord
  2
#POLYLINE(14)
340
0
102
{BLKREFS
331
FD
102
}
 70
     0
280
     1
281
     0
  0
BLOCK_RECORD
  5
100
330
1
100
AcDbSymbolTableRecord
100
AcDbBlockTableRecord
  2
#POLYLINE(15)
340
0
102
{BLKREFS
331
102
102
}
 70
     0
280
     1
281
     0
  0
BLOCK_RECORD
  5
105
330
1
100
AcDbSymbolTableRecord
100
AcDbBlockTableRecord
  2
#POLYLINE(16)
340
0
102
{BLKREFS
331
107
102
}
 70
     0
280
     1
281
     0
  0
BLOCK_RECORD
  5
10A
330
1
100
AcDbSymbolTableRecord
100
AcDbBlockTableRecord
  2
#POLYLINE(17)
340
0
102
{BLKREFS
331
10C
102
}
 70
     0
280
     1
281
     0
  0
BLOCK_RECORD
  5
10F
330
1
100
AcDbSymbolTableRecord
100
AcDbBlockTableRecord
  2
#POLYLINE(18)
340
0
102
{BLKREFS
331
111
102
}
 70
     0
280
     1
281
     0
  0
BLOCK_RECORD
  5
114
330
1
100
AcDbSymbolTableRecord
100
AcDbBlockTableRecord
  2
#POLYLINE(19)
340
0
102
{BLKREFS
331
116
102
}
 70
     0
280
     1
281
     0
  0
BLOCK_RECORD
  5
119
330
1
100
AcDbSymbolTableRecord
100
AcDbBlockTableRecord
  2
#POLYLINE(20)
340
0
102
{BLKREFS
331
11B
102
}
 70
     0
280
     1
281
     0
  0
BLOCK_RECORD
  5
11E
330
1
100
AcDbSymbolTableRecord
100
AcDbBlockTableRecord
  2
#POLYLINE(21)
340
0
102
{BLKREFS
331
120
102
}
 70
     0
280
     1
281
     0
  0
BLOCK_RECORD
  5
123
330
1
100
AcDbSymbolTableRecord
100
AcDbBlockTableRecord
  2
#POLYLINE(22)
340
0
102
{BLKREFS
331
125
102
}
 70
     0
280
     1
281
     0
  0
BLOCK_RECORD
  5
128
330
1
100
AcDbSymbolTableRecord
100
AcDbBlockTableRecord
  2
#POLYLINE(23)
340
0
102
{BLKREFS
331
12A
102
}
 70
     0
280
     1
281
     0
  0
BLOCK_RECORD
  5
12D
330
1
100
AcDbSymbolTableRecord
100
AcDbBlockTableRecord
  2
#POLYLINE(24)
340
0
102
{BLKREFS
331
12F
102
}
 70
     0
280
     1
281
     0
  0
BLOCK_RECORD
  5
132
330
1
100
AcDbSymbolTableRecord
100
AcDbBlockTableRecord
  2
#POLYLINE(25)
340
0
102
{BLKREFS
331
134
102
}
 70
     0
280
     1
281
     0
  0
BLOCK_RECORD
  5
137
330
1
100
AcDbSymbolTableRecord
100
AcDbBlockTableRecord
  2
#POLYLINE(26)
340
0
102
{BLKREFS
331
139
102
}
 70
     0
280
     1
281
     0
  0
BLOCK_RECORD
  5
13C
330
1
100
AcDbSymbolTableRecord
100
AcDbBlockTableRecord
  2
#POLYLINE(27)
340
0
102
{BLKREFS
331
13E
102
}
 70
     0
280
     1
281
     0
  0
BLOCK_RECORD
  5
141
330
1
100
AcDbSymbolTableRecord
100
AcDbBlockTableRecord
  2
#POLYLINE(28)
340
0
102
{BLKREFS
331
143
102
}
 70
     0
280
     1
281
     0
  0
BLOCK_RECORD
  5
146
330
1
100
AcDbSymbolTableRecord
100
AcDbBlockTableRecord
  2
#POLYLINE(29)
340
0
102
{BLKREFS
331
148
102
}
 70
     0
280
     1
281
     0
  0
BLOCK_RECORD
  5
14B
330
1
100
AcDbSymbolTableRecord
100
AcDbBlockTableRecord
  2
#POLYLINE(30)
340
0
102
{BLKREFS
331
14D
102
}
 70
     0
280
     1
281
     0
  0
BLOCK_RECORD
  5
150
330
1
100
AcDbSymbolTableRecord
100
AcDbBlockTableRecord
  2
#POLYLINE(31)
340
0
102
{BLKREFS
331
152
102
}
 70
     0
280
     1
281
     0
  0
BLOCK_RECORD
  5
155
330
1
100
AcDbSymbolTableRecord
100
AcDbBlockTableRecord
  2
#POLYLINE(32)
340
0
102
{BLKREFS
331
157
102
}
 70
     0
280
     1
281
     0
  0
BLOCK_RECORD
  5
15A
330
1
100
AcDbSymbolTableRecord
100
AcDbBlockTableRecord
  2
#POLYLINE(33)
340
0
102
{BLKREFS
331
15C
102
}
 70
     0
280
     1
281
     0
  0
BLOCK_RECORD
  5
15F
330
1
100
AcDbSymbolTableRecord
100
AcDbBlockTableRecord
  2
#POLYLINE(34)
340
0
102
{BLKREFS
331
161
102
}
 70
     0
280
     1
281
     0
  0
BLOCK_RECORD
  5
164
330
1
100
AcDbSymbolTableRecord
100
AcDbBlockTableRecord
  2
#POLYLINE(35)
340
0
102
{BLKREFS
331
166
102
}
 70
     0
280
     1
281
     0
  0
BLOCK_RECORD
  5
169
330
1
100
AcDbSymbolTableRecord
100
AcDbBlockTableRecord
  2
#POLYLINE(36)
340
0
102
{BLKREFS
331
16B
102
}
 70
     0
280
     1
281
     0
  0
BLOCK_RECORD
  5
16E
330
1
100
AcDbSymbolTableRecord
100
AcDbBlockTableRecord
  2
#POLYLINE(37)
340
0
102
{BLKREFS
331
170
102
}
 70
     0
280
     1
281
     0
  0
BLOCK_RECORD
  5
173
330
1
100
AcDbSymbolTableRecord
100
AcDbBlockTableRecord
  2
#POLYLINE(38)
340
0
102
{BLKREFS
331
175
102
}
 70
     0
280
     1
281
     0
  0
BLOCK_RECORD
  5
178
330
1
100
AcDbSymbolTableRecord
100
AcDbBlockTableRecord
  2
#POLYLINE(39)
340
0
102
{BLKREFS
331
17A
102
}
 70
     0
280
     1
281
     0
  0
BLOCK_RECORD
  5
17D
330
1
100
AcDbSymbolTableRecord
100
AcDbBlockTableRecord
  2
#POLYLINE(40)
340
0
102
{BLKREFS
331
17F
102
}
 70
     0
280
     1
281
     0
  0
BLOCK_RECORD
  5
182
330
1
100
AcDbSymbolTableRecord
100
AcDbBlockTableRecord
  2
#POLYLINE(41)
340
0
102
{BLKREFS
331
184
102
}
 70
     0
280
     1
281
     0
  0
BLOCK_RECORD
  5
187
330
1
100
AcDbSymbolTableRecord
100
AcDbBlockTableRecord
  2
#POLYLINE(42)
340
0
102
{BLKREFS
331
189
102
}
 70
     0
280
     1
281
     0
  0
BLOCK_RECORD
  5
18C
330
1
100
AcDbSymbolTableRecord
100
AcDbBlockTableRecord
  2
#POLYLINE(43)
340
0
102
{BLKREFS
331
18E
102
}
 70
     0
280
     1
281
     0
  0
BLOCK_RECORD
  5
191
330
1
100
AcDbSymbolTableRecord
100
AcDbBlockTableRecord
  2
#POLYLINE(44)
340
0
102
{BLKREFS
331
193
102
}
 70
     0
280
     1
281
     0
  0
BLOCK_RECORD
  5
196
330
1
100
AcDbSymbolTableRecord
100
AcDbBlockTableRecord
  2
#POLYLINE(45)
340
0
102
{BLKREFS
331
198
102
}
 70
     0
280
     1
281
     0
  0
BLOCK_RECORD
  5
19B
330
1
100
AcDbSymbolTableRecord
100
AcDbBlockTableRecord
  2
#POLYLINE(46)
340
0
102
{BLKREFS
331
19D
102
}
 70
     0
280
     1
281
     0
  0
BLOCK_RECORD
  5
1A0
330
1
100
AcDbSymbolTableRecord
100
AcDbBlockTableRecord
  2
#POLYLINE(47)
340
0
102
{BLKREFS
331
1A2
102
}
 70
     0
280
     1
281
     0
  0
BLOCK_RECORD
  5
1A5
330
1
100
AcDbSymbolTableRecord
100
AcDbBlockTableRecord
  2
#POLYLINE(48)
340
0
102
{BLKREFS
331
1A7
102
}
 70
     0
280
     1
281
     0
  0
BLOCK_RECORD
  5
1AA
330
1
100
AcDbSymbolTableRecord
100
AcDbBlockTableRecord
  2
#POLYLINE(49)
340
0
102
{BLKREFS
331
1AC
102
}
 70
     0
280
     1
281
     0
  0
BLOCK_RECORD
  5
1AF
330
1
100
AcDbSymbolTableRecord
100
AcDbBlockTableRecord
  2
#POLYLINE(50)
340
0
102
{BLKREFS
331
1B1
102
}
 70
     0
280
     1
281
     0
  0
BLOCK_RECORD
  5
1B4
330
1
100
AcDbSymbolTableRecord
100
AcDbBlockTableRecord
  2
#POLYLINE(51)
340
0
102
{BLKREFS
331
1B6
102
}
 70
     0
280
     1
281
     0
  0
BLOCK_RECORD
  5
1B9
330
1
100
AcDbSymbolTableRecord
100
AcDbBlockTableRecord
  2
#POLYLINE(52)
340
0
102
{BLKREFS
331
1BB
102
}
 70
     0
280
     1
281
     0
  0
BLOCK_RECORD
  5
1BE
330
1
100
AcDbSymbolTableRecord
100
AcDbBlockTableRecord
  2
#POLYLINE(53)
340
0
102
{BLKREFS
331
1C0
102
}
 70
     0
280
     1
281
     0
  0
BLOCK_RECORD
  5
1C3
330
1
100
AcDbSymbolTableRecord
100
AcDbBlockTableRecord
  2
#POLYLINE(54)
340
0
102
{BLKREFS
331
1C5
102
}
 70
     0
280
     1
281
     0
  0
BLOCK_RECORD
  5
1C8
330
1
100
AcDbSymbolTableRecord
100
AcDbBlockTableRecord
  2
#POLYLINE(55)
340
0
102
{BLKREFS
331
1CA
102
}
 70
     0
280
     1
281
     0
  0
BLOCK_RECORD
  5
1CD
330
1
100
AcDbSymbolTableRecord
100
AcDbBlockTableRecord
  2
#POLYLINE(56)
340
0
102
{BLKREFS
331
1CF
102
}
 70
     0
280
     1
281
     0
  0
BLOCK_RECORD
  5
1D2
330
1
100
AcDbSymbolTableRecord
100
AcDbBlockTableRecord
  2
#POLYLINE(57)
340
0
102
{BLKREFS
331
1D4
102
}
 70
     0
280
     1
281
     0
  0
BLOCK_RECORD
  5
1D7
330
1
100
AcDbSymbolTableRecord
100
AcDbBlockTableRecord
  2
#POLYLINE(58)
340
0
102
{BLKREFS
331
1D9
102
}
 70
     0
280
     1
281
     0
  0
BLOCK_RECORD
  5
1DC
330
1
100
AcDbSymbolTableRecord
100
AcDbBlockTableRecord
  2
#POLYLINE(59)
340
0
102
{BLKREFS
331
1DE
102
}
 70
     0
280
     1
281
     0
  0
BLOCK_RECORD
  5
1E1
330
1
100
AcDbSymbolTableRecord
100
AcDbBlockTableRecord
  2
#POLYLINE(60)
340
0
102
{BLKREFS
331
1E3
102
}
 70
     0
280
     1
281
     0
  0
BLOCK_RECORD
  5
1E6
330
1
100
AcDbSymbolTableRecord
100
AcDbBlockTableRecord
  2
#POLYLINE(61)
340
0
102
{BLKREFS
331
1E8
102
}
 70
     0
280
     1
281
     0
  0
BLOCK_RECORD
  5
1EB
330
1
100
AcDbSymbolTableRecord
100
AcDbBlockTableRecord
  2
#POLYLINE(62)
340
0
102
{BLKREFS
331
1ED
102
}
 70
     0
280
     1
281
     0
  0
BLOCK_RECORD
  5
1F0
330
1
100
AcDbSymbolTableRecord
100
AcDbBlockTableRecord
  2
#POLYLINE(63)
340
0
102
{BLKREFS
331
1F2
102
}
 70
     0
280
     1
281
     0
  0
BLOCK_RECORD
  5
1F5
330
1
100
AcDbSymbolTableRecord
100
AcDbBlockTableRecord
  2
#POLYLINE(64)
340
0
102
{BLKREFS
331
1F7
102
}
 70
     0
280
     1
281
     0
  0
BLOCK_RECORD
  5
1FA
330
1
100
AcDbSymbolTableRecord
100
AcDbBlockTableRecord
  2
#POLYLINE(65)
340
0
102
{BLKREFS
331
1FC
102
}
 70
     0
280
     1
281
     0
  0
BLOCK_RECORD
  5
207
330
1
100
AcDbSymbolTableRecord
100
AcDbBlockTableRecord
  2
#POLYLINE(66)
340
0
102
{BLKREFS
331
209
102
}
 70
     0
280
     1
281
     0
  0
BLOCK_RECORD
  5
20D
330
1
100
AcDbSymbolTableRecord
100
AcDbBlockTableRecord
  2
#POLYLINE(67)
340
0
102
{BLKREFS
331
20F
102
}
 70
     0
280
     1
281
     0
  0
BLOCK_RECORD
  5
219
330
1
100
AcDbSymbolTableRecord
100
AcDbBlockTableRecord
  2
#POLYLINE(68)
340
0
102
{BLKREFS
331
21B
102
}
 70
     0
280
     1
281
     0
  0
BLOCK_RECORD
  5
21F
330
1
100
AcDbSymbolTableRecord
100
AcDbBlockTableRecord
  2
#POLYLINE(69)
340
0
102
{BLKREFS
331
221
102
}
 70
     0
280
     1
281
     0
  0
BLOCK_RECORD
  5
225
330
1
100
AcDbSymbolTableRecord
100
AcDbBlockTableRecord
  2
#POLYLINE(70)
340
0
102
{BLKREFS
331
227
102
}
 70
     0
280
     1
281
     0
  0
BLOCK_RECORD
  5
22D
330
1
100
AcDbSymbolTableRecord
100
AcDbBlockTableRecord
  2
#POLYLINE(71)
340
0
102
{BLKREFS
331
22F
102
}
 70
     0
280
     1
281
     0
  0
BLOCK_RECORD
  5
232
330
1
100
AcDbSymbolTableRecord
100
AcDbBlockTableRecord
  2
#POLYLINE(72)
340
0
102
{BLKREFS
331
234
102
}
 70
     0
280
     1
281
     0
  0
BLOCK_RECORD
  5
23C
330
1
100
AcDbSymbolTableRecord
100
AcDbBlockTableRecord
  2
#POLYLINE(73)
340
0
102
{BLKREFS
331
23E
102
}
 70
     0
280
     1
281
     0
  0
BLOCK_RECORD
  5
242
330
1
100
AcDbSymbolTableRecord
100
AcDbBlockTableRecord
  2
#POLYLINE(74)
340
0
102
{BLKREFS
331
244
102
}
 70
     0
280
     1
281
     0
  0
BLOCK_RECORD
  5
248
330
1
100
AcDbSymbolTableRecord
100
AcDbBlockTableRecord
  2
#POLYLINE(75)
340
0
102
{BLKREFS
331
24A
102
}
 70
     0
280
     1
281
     0
  0
BLOCK_RECORD
  5
24E
330
1
100
AcDbSymbolTableRecord
100
AcDbBlockTableRecord
  2
#POLYLINE(76)
340
0
102
{BLKREFS
331
250
102
}
 70
     0
280
     1
281
     0
  0
BLOCK_RECORD
  5
253
330
1
100
AcDbSymbolTableRecord
100
AcDbBlockTableRecord
  2
#POLYLINE(77)
340
0
102
{BLKREFS
331
255
102
}
 70
     0
280
     1
281
     0
  0
BLOCK_RECORD
  5
258
330
1
100
AcDbSymbolTableRecord
100
AcDbBlockTableRecord
  2
#POLYLINE(78)
340
0
102
{BLKREFS
331
25A
102
}
 70
     0
280
     1
281
     0
  0
BLOCK_RECORD
  5
25D
330
1
100
AcDbSymbolTableRecord
100
AcDbBlockTableRecord
  2
#POLYLINE(79)
340
0
102
{BLKREFS
331
25F
102
}
 70
     0
280
     1
281
     0
  0
BLOCK_RECORD
  5
262
330
1
100
AcDbSymbolTableRecord
100
AcDbBlockTableRecord
  2
#POLYLINE(80)
340
0
102
{BLKREFS
331
264
102
}
 70
     0
280
     1
281
     0
  0
BLOCK_RECORD
  5
267
330
1
100
AcDbSymbolTableRecord
100
AcDbBlockTableRecord
  2
#POLYLINE(81)
340
0
102
{BLKREFS
331
269
102
}
 70
     0
280
     1
281
     0
  0
BLOCK_RECORD
  5
26C
330
1
100
AcDbSymbolTableRecord
100
AcDbBlockTableRecord
  2
#POLYLINE(82)
340
0
102
{BLKREFS
331
26E
102
}
 70
     0
280
     1
281
     0
  0
BLOCK_RECORD
  5
271
330
1
100
AcDbSymbolTableRecord
100
AcDbBlockTableRecord
  2
#POLYLINE(83)
340
0
102
{BLKREFS
331
273
102
}
 70
     0
280
     1
281
     0
  0
BLOCK_RECORD
  5
276
330
1
100
AcDbSymbolTableRecord
100
AcDbBlockTableRecord
  2
#POLYLINE(84)
340
0
102
{BLKREFS
331
278
102
}
 70
     0
280
     1
281
     0
  0
BLOCK_RECORD
  5
27B
330
1
100
AcDbSymbolTableRecord
100
AcDbBlockTableRecord
  2
#POLYLINE(85)
340
0
102
{BLKREFS
331
27D
102
}
 70
     0
280
     1
281
     0
  0
BLOCK_RECORD
  5
280
330
1
100
AcDbSymbolTableRecord
100
AcDbBlockTableRecord
  2
#POLYLINE(86)
340
0
102
{BLKREFS
331
282
102
}
 70
     0
280
     1
281
     0
  0
BLOCK_RECORD
  5
285
330
1
100
AcDbSymbolTableRecord
100
AcDbBlockTableRecord
  2
#POLYLINE(87)
340
0
102
{BLKREFS
331
287
102
}
 70
     0
280
     1
281
     0
  0
BLOCK_RECORD
  5
28A
330
1
100
AcDbSymbolTableRecord
100
AcDbBlockTableRecord
  2
#POLYLINE(88)
340
0
102
{BLKREFS
331
28C
102
}
 70
     0
280
     1
281
     0
  0
BLOCK_RECORD
  5
28F
330
1
100
AcDbSymbolTableRecord
100
AcDbBlockTableRecord
  2
#POLYLINE(89)
340
0
102
{BLKREFS
331
291
102
}
 70
     0
280
     1
281
     0
  0
BLOCK_RECORD
  5
294
330
1
100
AcDbSymbolTableRecord
100
AcDbBlockTableRecord
  2
#POLYLINE(90)
340
0
102
{BLKREFS
331
296
102
}
 70
     0
280
     1
281
     0
  0
BLOCK_RECORD
  5
299
330
1
100
AcDbSymbolTableRecord
100
AcDbBlockTableRecord
  2
#POLYLINE(91)
340
0
102
{BLKREFS
331
29B
102
}
 70
     0
280
     1
281
     0
  0
BLOCK_RECORD
  5
29E
330
1
100
AcDbSymbolTableRecord
100
AcDbBlockTableRecord
  2
#POLYLINE(92)
340
0
102
{BLKREFS
331
2A0
102
}
 70
     0
280
     1
281
     0
  0
BLOCK_RECORD
  5
2A3
330
1
100
AcDbSymbolTableRecord
100
AcDbBlockTableRecord
  2
#POLYLINE(93)
340
0
102
{BLKREFS
331
2A5
102
}
 70
     0
280
     1
281
     0
  0
BLOCK_RECORD
  5
2A8
330
1
100
AcDbSymbolTableRecord
100
AcDbBlockTableRecord
  2
#POLYLINE(94)
340
0
102
{BLKREFS
331
2AA
102
}
 70
     0
280
     1
281
     0
  0
BLOCK_RECORD
  5
2AD
330
1
100
AcDbSymbolTableRecord
100
AcDbBlockTableRecord
  2
#POLYLINE(95)
340
0
102
{BLKREFS
331
2AF
102
}
 70
     0
280
     1
281
     0
  0
BLOCK_RECORD
  5
2B2
330
1
100
AcDbSymbolTableRecord
100
AcDbBlockTableRecord
  2
#POLYLINE(96)
340
0
102
{BLKREFS
331
2B4
102
}
 70
     0
280
     1
281
     0
  0
BLOCK_RECORD
  5
2B7
330
1
100
AcDbSymbolTableRecord
100
AcDbBlockTableRecord
  2
#POLYLINE(97)
340
0
102
{BLKREFS
331
2B9
102
}
 70
     0
280
     1
281
     0
  0
BLOCK_RECORD
  5
2BC
330
1
100
AcDbSymbolTableRecord
100
AcDbBlockTableRecord
  2
#POLYLINE(98)
340
0
102
{BLKREFS
331
2BE
102
}
 70
     0
280
     1
281
     0
  0
BLOCK_RECORD
  5
2C1
330
1
100
AcDbSymbolTableRecord
100
AcDbBlockTableRecord
  2
#POLYLINE(99)
340
0
102
{BLKREFS
331
2C3
102
}
 70
     0
280
     1
281
     0
  0
BLOCK_RECORD
  5
2C6
330
1
100
AcDbSymbolTableRecord
100
AcDbBlockTableRecord
  2
#POLYLINE(100)
340
0
102
{BLKREFS
331
2C8
102
}
 70
     0
280
     1
281
     0
  0
BLOCK_RECORD
  5
2CB
330
1
100
AcDbSymbolTableRecord
100
AcDbBlockTableRecord
  2
#POLYLINE(101)
340
0
102
{BLKREFS
331
2CD
102
}
 70
     0
280
     1
281
     0
  0
BLOCK_RECORD
  5
2D0
330
1
100
AcDbSymbolTableRecord
100
AcDbBlockTableRecord
  2
#POLYLINE(102)
340
0
102
{BLKREFS
331
2D2
102
}
 70
     0
280
     1
281
     0
  0
BLOCK_RECORD
  5
2D5
330
1
100
AcDbSymbolTableRecord
100
AcDbBlockTableRecord
  2
#POLYLINE(103)
340
0
102
{BLKREFS
331
2D7
102
}
 70
     0
280
     1
281
     0
  0
BLOCK_RECORD
  5
2DA
330
1
100
AcDbSymbolTableRecord
100
AcDbBlockTableRecord
  2
#POLYLINE(104)
340
0
102
{BLKREFS
331
2DC
102
}
 70
     0
280
     1
281
     0
  0
BLOCK_RECORD
  5
2DF
330
1
100
AcDbSymbolTableRecord
100
AcDbBlockTableRecord
  2
#POLYLINE(105)
340
0
102
{BLKREFS
331
2E1
102
}
 70
     0
280
     1
281
     0
  0
BLOCK_RECORD
  5
2E4
330
1
100
AcDbSymbolTableRecord
100
AcDbBlockTableRecord
  2
#POLYLINE(106)
340
0
102
{BLKREFS
331
2E6
102
}
 70
     0
280
     1
281
     0
  0
BLOCK_RECORD
  5
2E9
330
1
100
AcDbSymbolTableRecord
100
AcDbBlockTableRecord
  2
#POLYLINE(107)
340
0
102
{BLKREFS
331
2EB
102
}
 70
     0
280
     1
281
     0
  0
BLOCK_RECORD
  5
2EE
330
1
100
AcDbSymbolTableRecord
100
AcDbBlockTableRecord
  2
#POLYLINE(108)
340
0
102
{BLKREFS
331
2F0
102
}
 70
     0
280
     1
281
     0
  0
BLOCK_RECORD
  5
2F3
330
1
100
AcDbSymbolTableRecord
100
AcDbBlockTableRecord
  2
#POLYLINE(109)
340
0
102
{BLKREFS
331
2F5
102
}
 70
     0
280
     1
281
     0
  0
BLOCK_RECORD
  5
2F8
330
1
100
AcDbSymbolTableRecord
100
AcDbBlockTableRecord
  2
#POLYLINE(110)
340
0
102
{BLKREFS
331
2FA
102
}
 70
     0
280
     1
281
     0
  0
BLOCK_RECORD
  5
2FD
330
1
100
AcDbSymbolTableRecord
100
AcDbBlockTableRecord
  2
#POLYLINE(111)
340
0
102
{BLKREFS
331
2FF
102
}
 70
     0
280
     1
281
     0
  0
BLOCK_RECORD
  5
302
330
1
100
AcDbSymbolTableRecord
100
AcDbBlockTableRecord
  2
#POLYLINE(112)
340
0
102
{BLKREFS
331
304
102
}
 70
     0
280
     1
281
     0
  0
BLOCK_RECORD
  5
307
330
1
100
AcDbSymbolTableRecord
100
AcDbBlockTableRecord
  2
#POLYLINE(113)
340
0
102
{BLKREFS
331
309
102
}
 70
     0
280
     1
281
     0
  0
BLOCK_RECORD
  5
30C
330
1
100
AcDbSymbolTableRecord
100
AcDbBlockTableRecord
  2
#POLYLINE(114)
340
0
102
{BLKREFS
331
30E
102
}
 70
     0
280
     1
281
     0
  0
BLOCK_RECORD
  5
311
330
1
100
AcDbSymbolTableRecord
100
AcDbBlockTableRecord
  2
#POLYLINE(115)
340
0
102
{BLKREFS
331
313
102
}
 70
     0
280
     1
281
     0
  0
BLOCK_RECORD
  5
316
330
1
100
AcDbSymbolTableRecord
100
AcDbBlockTableRecord
  2
#POLYLINE(116)
340
0
102
{BLKREFS
331
318
102
}
 70
     0
280
     1
281
     0
  0
BLOCK_RECORD
  5
31B
330
1
100
AcDbSymbolTableRecord
100
AcDbBlockTableRecord
  2
#POLYLINE(117)
340
0
102
{BLKREFS
331
31D
102
}
 70
     0
280
     1
281
     0
  0
BLOCK_RECORD
  5
320
330
1
100
AcDbSymbolTableRecord
100
AcDbBlockTableRecord
  2
#POLYLINE(118)
340
0
102
{BLKREFS
331
322
102
}
 70
     0
280
     1
281
     0
  0
BLOCK_RECORD
  5
325
330
1
100
AcDbSymbolTableRecord
100
AcDbBlockTableRecord
  2
#POLYLINE(119)
340
0
102
{BLKREFS
331
327
102
}
 70
     0
280
     1
281
     0
  0
BLOCK_RECORD
  5
32A
330
1
100
AcDbSymbolTableRecord
100
AcDbBlockTableRecord
  2
#POLYLINE(120)
340
0
102
{BLKREFS
331
32C
102
}
 70
     0
280
     1
281
     0
  0
BLOCK_RECORD
  5
32F
330
1
100
AcDbSymbolTableRecord
100
AcDbBlockTableRecord
  2
#POLYLINE(121)
340
0
102
{BLKREFS
331
331
102
}
 70
     0
280
     1
281
     0
  0
BLOCK_RECORD
  5
334
330
1
100
AcDbSymbolTableRecord
100
AcDbBlockTableRecord
  2
#POLYLINE(122)
340
0
102
{BLKREFS
331
336
102
}
 70
     0
280
     1
281
     0
  0
BLOCK_RECORD
  5
339
330
1
100
AcDbSymbolTableRecord
100
AcDbBlockTableRecord
  2
#POLYLINE(123)
340
0
102
{BLKREFS
331
33B
102
}
 70
     0
280
     1
281
     0
  0
BLOCK_RECORD
  5
33E
330
1
100
AcDbSymbolTableRecord
100
AcDbBlockTableRecord
  2
#POLYLINE(124)
340
0
102
{BLKREFS
331
340
102
}
 70
     0
280
     1
281
     0
  0
BLOCK_RECORD
  5
343
330
1
100
AcDbSymbolTableRecord
100
AcDbBlockTableRecord
  2
#POLYLINE(125)
340
0
102
{BLKREFS
331
345
102
}
 70
     0
280
     1
281
     0
  0
BLOCK_RECORD
  5
348
330
1
100
AcDbSymbolTableRecord
100
AcDbBlockTableRecord
  2
#POLYLINE(126)
340
0
102
{BLKREFS
331
34A
102
}
 70
     0
280
     1
281
     0
  0
BLOCK_RECORD
  5
34D
330
1
100
AcDbSymbolTableRecord
100
AcDbBlockTableRecord
  2
#POLYLINE(127)
340
0
102
{BLKREFS
331
34F
102
}
 70
     0
280
     1
281
     0
  0
BLOCK_RECORD
  5
352
330
1
100
AcDbSymbolTableRecord
100
AcDbBlockTableRecord
  2
#POLYLINE(128)
340
0
102
{BLKREFS
331
354
102
}
 70
     0
280
     1
281
     0
  0
BLOCK_RECORD
  5
357
330
1
100
AcDbSymbolTableRecord
100
AcDbBlockTableRecord
  2
#POLYLINE(129)
340
0
102
{BLKREFS
331
359
102
}
 70
     0
280
     1
281
     0
  0
BLOCK_RECORD
  5
35C
330
1
100
AcDbSymbolTableRecord
100
AcDbBlockTableRecord
  2
#POLYLINE(130)
340
0
102
{BLKREFS
331
35E
102
}
 70
     0
280
     1
281
     0
  0
BLOCK_RECORD
  5
361
330
1
100
AcDbSymbolTableRecord
100
AcDbBlockTableRecord
  2
#POLYLINE(131)
340
0
102
{BLKREFS
331
363
102
}
 70
     0
280
     1
281
     0
  0
BLOCK_RECORD
  5
366
330
1
100
AcDbSymbolTableRecord
100
AcDbBlockTableRecord
  2
#POLYLINE(132)
340
0
102
{BLKREFS
331
368
102
}
 70
     0
280
     1
281
     0
  0
BLOCK_RECORD
  5
36B
330
1
100
AcDbSymbolTableRecord
100
AcDbBlockTableRecord
  2
#POLYLINE(133)
340
0
102
{BLKREFS
331
36D
102
}
 70
     0
280
     1
281
     0
  0
BLOCK_RECORD
  5
3B3
330
1
100
AcDbSymbolTableRecord
100
AcDbBlockTableRecord
  2
#POLYLINE(134)
340
0
102
{BLKREFS
331
3B5
102
}
 70
     0
280
     1
281
     0
  0
BLOCK_RECORD
  5
3BC
330
1
100
AcDbSymbolTableRecord
100
AcDbBlockTableRecord
  2
#POLYLINE(135)
340
0
102
{BLKREFS
331
3BE
102
}
 70
     0
280
     1
281
     0
  0
BLOCK_RECORD
  5
3C5
330
1
100
AcDbSymbolTableRecord
100
AcDbBlockTableRecord
  2
#POLYLINE(136)
340
0
102
{BLKREFS
331
3C7
102
}
 70
     0
280
     1
281
     0
  0
BLOCK_RECORD
  5
3D8
330
1
100
AcDbSymbolTableRecord
100
AcDbBlockTableRecord
  2
#POLYLINE(137)
340
0
102
{BLKREFS
331
3DA
102
}
 70
     0
280
     1
281
     0
  0
BLOCK_RECORD
  5
3E1
330
1
100
AcDbSymbolTableRecord
100
AcDbBlockTableRecord
  2
#POLYLINE(138)
340
0
102
{BLKREFS
331
3E3
102
}
 70
     0
280
     1
281
     0
  0
BLOCK_RECORD
  5
3EA
330
1
100
AcDbSymbolTableRecord
100
AcDbBlockTableRecord
  2
#POLYLINE(139)
340
0
102
{BLKREFS
331
3EC
102
}
 70
     0
280
     1
281
     0
  0
BLOCK_RECORD
  5
3F3
330
1
100
AcDbSymbolTableRecord
100
AcDbBlockTableRecord
  2
#POLYLINE(140)
340
0
102
{BLKREFS
331
3F5
102
}
 70
     0
280
     1
281
     0
  0
BLOCK_RECORD
  5
3FC
330
1
100
AcDbSymbolTableRecord
100
AcDbBlockTableRecord
  2
#POLYLINE(141)
340
0
102
{BLKREFS
331
3FE
102
}
 70
     0
280
     1
281
     0
  0
BLOCK_RECORD
  5
405
330
1
100
AcDbSymbolTableRecord
100
AcDbBlockTableRecord
  2
#POLYLINE(142)
340
0
102
{BLKREFS
331
407
102
}
 70
     0
280
     1
281
     0
  0
BLOCK_RECORD
  5
40E
330
1
100
AcDbSymbolTableRecord
100
AcDbBlockTableRecord
  2
#POLYLINE(143)
340
0
102
{BLKREFS
331
410
102
}
 70
     0
280
     1
281
     0
  0
BLOCK_RECORD
  5
41C
330
1
100
AcDbSymbolTableRecord
100
AcDbBlockTableRecord
  2
#POLYLINE(144)
340
0
102
{BLKREFS
331
41E
102
}
 70
     0
280
     1
281
     0
  0
BLOCK_RECORD
  5
425
330
1
100
AcDbSymbolTableRecord
100
AcDbBlockTableRecord
  2
#POLYLINE(145)
340
0
102
{BLKREFS
331
427
102
}
 70
     0
280
     1
281
     0
  0
BLOCK_RECORD
  5
42E
330
1
100
AcDbSymbolTableRecord
100
AcDbBlockTableRecord
  2
#POLYLINE(146)
340
0
102
{BLKREFS
331
430
102
}
 70
     0
280
     1
281
     0
  0
ENDTAB
  0
ENDSEC
  0
SECTION
  2
BLOCKS
  0
BLOCK
  5
20
330
1F
100
AcDbEntity
  8
0
100
AcDbBlockBegin
  2
*Model_Space
 70
     0
 10
0.0
 20
0.0
 30
0.0
  3
*Model_Space
  1
*Model_Space
  0
ENDBLK
  5
21
330
1F
100
AcDbEntity
  8
0
100
AcDbBlockEnd
  0
BLOCK
  5
1C
330
1B
100
AcDbEntity
 67
     1
  8
0
100
AcDbBlockBegin
  2
*Paper_Space
 70
     0
 10
0.0
 20
0.0
 30
0.0
  3
*Paper_Space
  1
*Paper_Space
  0
ENDBLK
  5
1D
330
1B
100
AcDbEntity
 67
     1
  8
0
100
AcDbBlockEnd
  0
BLOCK
  5
24
330
23
100
AcDbEntity
  8
0
100
AcDbBlockBegin
  2
*Paper_Space0
 70
     0
 10
0.0
 20
0.0
 30
0.0
  3
*Paper_Space0
  1
*Paper_Space0
  0
ENDBLK
  5
25
330
23
100
AcDbEntity
  8
0
100
AcDbBlockEnd
  0
BLOCK
  5
B8
330
B5
100
AcDbEntity
  8
0
100
AcDbBlockBegin
  2
#POLYLINE
 70
     0
 10
0.0
 20
0.0
 30
0.0
  3
#POLYLINE
  1
#POLYLINE
  0
LWPOLYLINE
  5
B6
330
B5
100
AcDbEntity
  8
input_beam_width
100
AcDbPolyline
 90
       10
 70
     0
 43
0.0
 10
-24528.2886429
 20
302.9967360789997
 10
-24531.5912043
 20
303.3169891780017
 10
-24534.8937658
 20
303.6372422929999
 10
-24538.1963273
 20
303.9574954230011
 10
-24541.4988887
 20
304.2777485689985
 10
-24544.8014502
 20
304.5980017299989
 10
-24548.1040117
 20
304.9182549069992
 10
-24551.4065731
 20
305.2385080999993
 10
-24554.7091346
 20
305.5587613079988
 10
-24558.0116961
 20
305.8790145320017
  0
ENDBLK
  5
B9
330
B5
100
AcDbEntity
  8
0
100
AcDbBlockEnd
  0
BLOCK
  5
BD
330
BA
100
AcDbEntity
  8
0
100
AcDbBlockBegin
  2
#POLYLINE(1)
 70
     0
 10
0.0
 20
0.0
 30
0.0
  3
#POLYLINE(1)
  1
#POLYLINE(1)
  0
LWPOLYLINE
  5
BB
330
BA
100
AcDbEntity
  8
input_beam_width
100
AcDbPolyline
 90
       10
 70
     0
 43
0.0
 10
-24529.8476046
 20
277.7169372069984
 10
-24533.1654965
 20
278.0287859210002
 10
-24536.4833884
 20
278.3406346189986
 10
-24539.8012803
 20
278.6524833010008
 10
-24543.1191721
 20
278.9643319679999
 10
-24546.437064
 20
279.2761806189992
 10
-24549.7549559
 20
279.5880292539987
 10
-24553.0728478
 20
279.8998778739988
 10
-24556.3907397
 20
280.2117264769986
 10
-24559.7086316
 20
280.5235750659995
  0
ENDBLK
  5
BE
330
BA
100
AcDbEntity
  8
0
100
AcDbBlockEnd
  0
BLOCK
  5
C2
330
BF
100
AcDbEntity
  8
0
100
AcDbBlockBegin
  2
#POLYLINE(2)
 70
     0
 10
0.0
 20
0.0
 30
0.0
  3
#POLYLINE(2)
  1
#POLYLINE(2)
  0
LWPOLYLINE
  5
C0
330
BF
100
AcDbEntity
  8
input_beam_width
100
AcDbPolyline
 90
       10
 70
     0
 43
0.0
 10
-27785.3636978
 20
121.3260414040014
 10
-27781.7324997
 20
122.3458052159986
 10
-27778.1013016
 20
123.3655689480001
 10
-27774.4701034
 20
124.3853326009994
 10
-27770.8389052
 20
125.4050961749999
 10
-27767.207707
 20
126.4248596690013
 10
-27763.5765087
 20
127.4446230829999
 10
-27759.9453105
 20
128.4643864190002
 10
-27756.3141122
 20
129.4841496740009
 10
-27752.6829139
 20
130.5039128509998
  0
ENDBLK
  5
C3
330
BF
100
AcDbEntity
  8
0
100
AcDbBlockEnd
  0
BLOCK
  5
C7
330
C4
100
AcDbEntity
  8
0
100
AcDbBlockBegin
  2
#POLYLINE(3)
 70
     0
 10
0.0
 20
0.0
 30
0.0
  3
#POLYLINE(3)
  1
#POLYLINE(3)
  0
LWPOLYLINE
  5
C5
330
C4
100
AcDbEntity
  8
input_beam_width
100
AcDbPolyline
 90
       10
 70
     0
 43
0.0
 10
-27797.2897124
 20
134.4653789520016
 10
-27793.7532008
 20
135.4585258730003
 10
-27790.2166892
 20
136.45167287
 10
-27786.6801776
 20
137.4448199420003
 10
-27783.1436661
 20
138.4379670900016
 10
-27779.6071546
 20
139.4311143119994
 10
-27776.0706431
 20
140.4242616109987
 10
-27772.5341316
 20
141.4174089840017
 10
-27768.9976201
 20
142.4105564329984
 10
-27765.4611087
 20
143.4037039569994
  0
ENDBLK
  5
C8
330
C4
100
AcDbEntity
  8
0
100
AcDbBlockEnd
  0
BLOCK
  5
CC
330
C9
100
AcDbEntity
  8
0
100
AcDbBlockBegin
  2
#POLYLINE(4)
 70
     0
 10
0.0
 20
0.0
 30
0.0
  3
#POLYLINE(4)
  1
#POLYLINE(4)
  0
LWPOLYLINE
  5
CA
330
C9
100
AcDbEntity
  8
input_beam_width
100
AcDbPolyline
 90
       10
 70
     0
 43
0.0
 10
-27752.6353811
 20
130.4559277699991
 10
-27698.5102841
 20
130.4560956780006
 10
-27644.385187
 20
130.4561970229988
 10
-27590.26009
 20
130.4562317970012
 10
-27536.1349929
 20
130.4561999969992
 10
-27482.0098958
 20
130.4561016219996
 10
-27427.8847988
 20
130.4559366700014
 10
-27373.7597017
 20
130.4557051439988
 10
-27319.6346047
 20
130.4554070480008
 10
-27265.5095076
 20
130.4550423879991
  0
ENDBLK
  5
CD
330
C9
100
AcDbEntity
  8
0
100
AcDbBlockEnd
  0
BLOCK
  5
D1
330
CE
100
AcDbEntity
  8
0
100
AcDbBlockBegin
  2
#POLYLINE(5)
 70
     0
 10
0.0
 20
0.0
 30
0.0
  3
#POLYLINE(5)
  1
#POLYLINE(5)
  0
LWPOLYLINE
  5
CF
330
CE
100
AcDbEntity
  8
input_beam_width
100
AcDbPolyline
 90
       10
 70
     0
 43
0.0
 10
-27765.4135998
 20
143.3557429460016
 10
-27708.4489012
 20
143.3553443919991
 10
-27651.4842026
 20
143.355019568
 10
-27594.519504
 20
143.3547684810001
 10
-27537.5548053
 20
143.3545911369984
 10
-27480.5901067
 20
143.3544875379994
 10
-27423.6254081
 20
143.3544576839995
 10
-27366.6607095
 20
143.3545015730015
 10
-27309.6960109
 20
143.3546191979985
 10
-27252.7313123
 20
143.3548105539994
  0
ENDBLK
  5
D2
330
CE
100
AcDbEntity
  8
0
100
AcDbBlockEnd
  0
BLOCK
  5
D6
330
D3
100
AcDbEntity
  8
0
100
AcDbBlockBegin
  2
#POLYLINE(6)
 70
     0
 10
0.0
 20
0.0
 30
0.0
  3
#POLYLINE(6)
  1
#POLYLINE(6)
  0
LWPOLYLINE
  5
D4
330
D3
100
AcDbEntity
  8
input_beam_width
100
AcDbPolyline
 90
       10
 70
     0
 43
0.0
 10
-29784.2733518
 20
56.60944021320029
 10
-29562.1724059
 20
63.80403112689964
 10
-29340.0714291
 20
70.9976652746991
 10
-29117.9704213
 20
78.19033905190008
 10
-28895.8693822
 20
85.38204924530146
 10
-28673.7683119
 20
92.57279303959876
 10
-28451.6672103
 20
99.7625680238998
 10
-28229.5660772
 20
106.9513721959993
 10
-28007.4649127
 20
114.1392039679995
 10
-27785.3637167
 20
121.3260621679983
  0
ENDBLK
  5
D7
330
D3
100
AcDbEntity
  8
0
100
AcDbBlockEnd
  0
BLOCK
  5
DB
330
D8
100
AcDbEntity
  8
0
100
AcDbBlockBegin
  2
#POLYLINE(7)
 70
     0
 10
0.0
 20
0.0
 30
0.0
  3
#POLYLINE(7)
  1
#POLYLINE(7)
  0
LWPOLYLINE
  5
D9
330
D8
100
AcDbEntity
  8
input_beam_width
100
AcDbPolyline
 90
       10
 70
     0
 43
0.0
 10
-29796.2890101
 20
69.84754163230173
 10
-29574.1778544
 20
77.02344882889884
 10
-29352.0667298
 20
84.20031267579907
 10
-29129.9556361
 20
91.37813679829924
 10
-28907.8445737
 20
98.55692443059888
 10
-28685.7335425
 20
105.7366784090009
 10
-28463.6225427
 20
112.9174011659998
 10
-28241.5115742
 20
120.0990947259997
 10
-28019.4006372
 20
127.2817606969984
 10
-27797.2897317
 20
134.465400273999
  0
ENDBLK
  5
DC
330
D8
100
AcDbEntity
  8
0
100
AcDbBlockEnd
  0
BLOCK
  5
E0
330
DD
100
AcDbEntity
  8
0
100
AcDbBlockBegin
  2
#POLYLINE(8)
 70
     0
 10
0.0
 20
0.0
 30
0.0
  3
#POLYLINE(8)
  1
#POLYLINE(8)
  0
LWPOLYLINE
  5
DE
330
DD
100
AcDbEntity
  8
input_beam_width
100
AcDbPolyline
 90
       10
 70
     0
 43
0.0
 10
-24529.8476178
 20
277.7167210560001
 10
-23977.8230799
 20
270.6607209219983
 10
-23425.7985541
 20
263.6037922059986
 10
-22873.7740403
 20
256.5459243350015
 10
-22321.7495388
 20
249.4871067890017
 10
-21769.7250496
 20
242.4273291069985
 10
-21217.7005729
 20
235.3665809039994
 10
-20665.6761088
 20
228.3048518719988
 10
-20113.6516575
 20
221.2421317929984
 10
-19561.6272191
 20
214.1784105510014
  0
ENDBLK
  5
E1
330
DD
100
AcDbEntity
  8
0
100
AcDbBlockEnd
  0
BLOCK
  5
E5
330
E2
100
AcDbEntity
  8
0
100
AcDbBlockBegin
  2
#POLYLINE(9)
 70
     0
 10
0.0
 20
0.0
 30
0.0
  3
#POLYLINE(9)
  1
#POLYLINE(9)
  0
LWPOLYLINE
  5
E3
330
E2
100
AcDbEntity
  8
input_beam_width
100
AcDbPolyline
 90
       10
 70
     0
 43
0.0
 10
-24528.2886554
 20
302.9965359339985
 10
-23976.5402732
 20
295.8473127159996
 10
-23424.791879
 20
288.6990171739999
 10
-22873.0434728
 20
281.5516598649992
 10
-22321.2950543
 20
274.4052512939998
 10
-21769.5466235
 20
267.2598019040015
 10
-21217.7981803
 20
260.1153220669985
 10
-20666.0497244
 20
252.9718220750001
 10
-20114.3012558
 20
245.8293121300012
 10
-19562.5527743
 20
238.6878023329991
  0
ENDBLK
  5
E6
330
E2
100
AcDbEntity
  8
0
100
AcDbBlockEnd
  0
BLOCK
  5
EA
330
E7
100
AcDbEntity
  8
0
100
AcDbBlockBegin
  2
#POLYLINE(10)
 70
     0
 10
0.0
 20
0.0
 30
0.0
  3
#POLYLINE(10)
  1
#POLYLINE(10)
  0
LWPOLYLINE
  5
E8
330
E7
100
AcDbEntity
  8
input_beam_width
100
AcDbPolyline
 90
       10
 70
     0
 43
0.0
 10
-21314.3806851
 20
-70.86567053449835
 10
-21203.3474127
 20
-75.3039311186003
 10
-21092.3141487
 20
-79.74240223160086
 10
-20981.2808933
 20
-84.18108626129833
 10
-20870.2476465
 20
-88.61998561229848
 10
-20759.2144085
 20
-93.05910270550157
 10
-20648.1811794
 20
-97.4984399772984
 10
-20537.1479592
 20
-101.9379998799996
 10
-20426.1147481
 20
-106.3777848799982
 10
-20315.0815461
 20
-110.8177974589998
  0
ENDBLK
  5
EB
330
E7
100
AcDbEntity
  8
0
100
AcDbBlockEnd
  0
BLOCK
  5
EF
330
EC
100
AcDbEntity
  8
0
100
AcDbBlockBegin
  2
#POLYLINE(11)
 70
     0
 10
0.0
 20
0.0
 30
0.0
  3
#POLYLINE(11)
  1
#POLYLINE(11)
  0
LWPOLYLINE
  5
ED
330
EC
100
AcDbEntity
  8
input_beam_width
100
AcDbPolyline
 90
       10
 70
     0
 43
0.0
 10
-21313.6135784
 20
-56.64005869460016
 10
-21202.604098
 20
-61.13107349929851
 10
-21091.594609
 20
-65.62187785350034
 10
-20980.5851115
 20
-70.11246937060059
 10
-20869.5756054
 20
-74.60284564749963
 10
-20758.5660905
 20
-79.09300426479967
 10
-20647.5565667
 20
-83.58294278729954
 10
-20536.547034
 20
-88.07265876430029
 10
-20425.5374923
 20
-92.56214973059832
 10
-20314.5279414
 20
-97.05141320629991
  0
ENDBLK
  5
F0
330
EC
100
AcDbEntity
  8
0
100
AcDbBlockEnd
  0
BLOCK
  5
F4
330
F1
100
AcDbEntity
  8
0
100
AcDbBlockBegin
  2
#POLYLINE(12)
 70
     0
 10
0.0
 20
0.0
 30
0.0
  3
#POLYLINE(12)
  1
#POLYLINE(12)
  0
LWPOLYLINE
  5
F2
330
F1
100
AcDbEntity
  8
input_beam_width
100
AcDbPolyline
 90
       10
 70
     0
 43
0.0
 10
-19561.6272182
 20
214.1783868450002
 10
-19550.5656021
 20
214.2103430470015
 10
-19539.503986
 20
214.2422990570012
 10
-19528.4423699
 20
214.2742548739989
 10
-19517.3807538
 20
214.3062104989986
 10
-19506.3191377
 20
214.3381659299994
 10
-19495.2575216
 20
214.3701211680018
 10
-19484.1959055
 20
214.402076213999
 10
-19473.1342895
 20
214.4340310660009
 10
-19462.0726734
 20
214.4659857250008
  0
ENDBLK
  5
F5
330
F1
100
AcDbEntity
  8
0
100
AcDbBlockEnd
  0
BLOCK
  5
F9
330
F6
100
AcDbEntity
  8
0
100
AcDbBlockBegin
  2
#POLYLINE(13)
 70
     0
 10
0.0
 20
0.0
 30
0.0
  3
#POLYLINE(13)
  1
#POLYLINE(13)
  0
LWPOLYLINE
  5
F7
330
F6
100
AcDbEntity
  8
input_beam_width
100
AcDbPolyline
 90
       10
 70
     0
 43
0.0
 10
-19562.5527734
 20
238.6877786250006
 10
-19551.3960462
 20
238.7188904860013
 10
-19540.2393189
 20
238.7500025420013
 10
-19529.0825917
 20
238.7811147950015
 10
-19517.9258645
 20
238.8122272440014
 10
-19506.7691373
 20
238.8433398890011
 10
-19495.6124101
 20
238.8744527310009
 10
-19484.4556829
 20
238.9055657690005
 10
-19473.2989557
 20
238.9366790029999
 10
-19462.1422284
 20
238.967792432999
  0
ENDBLK
  5
FA
330
F6
100
AcDbEntity
  8
0
100
AcDbBlockEnd
  0
BLOCK
  5
FE
330
FB
100
AcDbEntity
  8
0
100
AcDbBlockBegin
  2
#POLYLINE(14)
 70
     0
 10
0.0
 20
0.0
 30
0.0
  3
#POLYLINE(14)
  1
#POLYLINE(14)
  0
LWPOLYLINE
  5
FC
330
FB
100
AcDbEntity
  8
input_beam_width
100
AcDbPolyline
 90
       18
 70
     0
 43
0.0
 10
-24558.0116568
 20
305.8796008860008
 10
-24616.4486337
 20
312.3393630329992
 10
-24674.8856094
 20
318.799135117999
 10
-24733.3225842
 20
325.2589168539998
 10
-24791.7595579
 20
331.7187079639989
 10
-24850.1965306
 20
338.1785081820017
 10
-24908.6335024
 20
344.638317252
 10
-24967.0704732
 20
351.0981349280009
 10
-25025.5074432
 20
357.5579609730012
 10
-25083.9444122
 20
364.0177951570004
 10
-25142.3813804
 20
370.4776372609995
 10
-25200.8183478
 20
376.9374870710017
 10
-25259.2553143
 20
383.397344383
 10
-25317.6922801
 20
389.8572089980007
 10
-25376.129245
 20
396.3170807259994
 10
-25434.5662093
 20
402.7769593820012
 10
-25493.0031728
 20
409.2368447879999
 10
-25551.4401356
 20
415.6967367729994
  0
ENDBLK
  5
FF
330
FB
100
AcDbEntity
  8
0
100
AcDbBlockEnd
  0
BLOCK
  5
103
330
100
100
AcDbEntity
  8
0
100
AcDbBlockBegin
  2
#POLYLINE(15)
 70
     0
 10
0.0
 20
0.0
 30
0.0
  3
#POLYLINE(15)
  1
#POLYLINE(15)
  0
LWPOLYLINE
  5
101
330
100
100
AcDbEntity
  8
input_beam_width
100
AcDbPolyline
 90
       18
 70
     0
 43
0.0
 10
-24559.7085923
 20
280.5241612659993
 10
-24618.2338279
 20
286.7399673120017
 10
-24676.7590646
 20
292.9557633939985
 10
-24735.2843024
 20
299.1715498010017
 10
-24793.8095411
 20
305.3873268110001
 10
-24852.3347809
 20
311.6030946889987
 10
-24910.8600216
 20
317.8188536939997
 10
-24969.3852632
 20
324.0346040719996
 10
-25027.9105058
 20
330.2503460609987
 10
-25086.4357492
 20
336.4660798920013
 10
-25144.9609935
 20
342.6818057849996
 10
-25203.4862387
 20
348.8975239540014
 10
-25262.0114846
 20
355.1132346039994
 10
-25320.5367314
 20
361.3289379339985
 10
-25379.0619789
 20
367.5446341360002
 10
-25437.5872272
 20
373.7603233949994
 10
-25496.1124762
 20
379.9760058899992
 10
-25554.6377259
 20
386.1916817919991
  0
ENDBLK
  5
104
330
100
100
AcDbEntity
  8
0
100
AcDbBlockEnd
  0
BLOCK
  5
108
330
105
100
AcDbEntity
  8
0
100
AcDbBlockBegin
  2
#POLYLINE(16)
 70
     0
 10
0.0
 20
0.0
 30
0.0
  3
#POLYLINE(16)
  1
#POLYLINE(16)
  0
LWPOLYLINE
  5
106
330
105
100
AcDbEntity
  8
input_beam_width
100
AcDbPolyline
 90
       39
 70
     0
 43
0.0
 10
-21343.5927437
 20
-55.30167220819931
 10
-21427.4006649
 20
-45.87397640369818
 10
-21511.2085737
 20
-36.4461683845002
 10
-21595.0164708
 20
-27.01825457619998
 10
-21678.8243569
 20
-17.59024092719847
 10
-21762.6322325
 20
-8.162132951958483
 10
-21846.4400982
 20
1.266064230720076
 10
-21930.2479546
 20
10.69434586289935
 10
-22014.0558021
 20
20.12270751670076
 10
-22097.8636412
 20
29.55114506600148
 10
-22181.6714723
 20
38.97965466189999
 10
-22265.4792958
 20
48.40823270960027
 10
-22349.2871121
 20
57.83687584779909
 10
-22433.0949216
 20
67.26558093049971
 10
-22516.9027245
 20
76.69434501009891
 10
-22600.7105212
 20
86.12316532190016
 10
-22684.518312
 20
95.55203927019829
 10
-22768.3260971
 20
104.9809644160014
 10
-22852.1338768
 20
114.4099384649999
 10
-22935.9416513
 20
123.8389592569984
 10
-23019.7494208
 20
133.2680247569988
 10
-23103.5571856
 20
142.6971330460001
 10
-23187.3649459
 20
152.1262823129982
 10
-23271.1727018
 20
161.5554708449999
 10
-23354.9804535
 20
170.9846970260005
 10
-23438.7882013
 20
180.4139593250002
 10
-23522.5959452
 20
189.8432562929993
 10
-23606.4036854
 20
199.2725865579996
 10
-23690.2114221
 20
208.7019488180013
 10
-23774.0191553
 20
218.1313418380014
 10
-23857.8268853
 20
227.5607644470001
 10
-23941.6346122
 20
236.9902155290001
 10
-24025.442336
 20
246.4196940270012
 10
-24109.2500568
 20
255.849198934
 10
-24193.0577749
 20
265.2787292909998
 10
-24276.8654902
 20
274.7082841839983
 10
-24360.6732029
 20
284.1378627459999
 10
-24444.4809131
 20
293.5674641449987
 10
-24528.2886209
 20
302.9970875910003
  0
ENDBLK
  5
109
330
105
100
AcDbEntity
  8
0
100
AcDbBlockEnd
  0
BLOCK
  5
10D
330
10A
100
AcDbEntity
  8
0
100
AcDbBlockBegin
  2
#POLYLINE(17)
 70
     0
 10
0.0
 20
0.0
 30
0.0
  3
#POLYLINE(17)
  1
#POLYLINE(17)
  0
LWPOLYLINE
  5
10B
330
10A
100
AcDbEntity
  8
input_beam_width
100
AcDbPolyline
 90
       39
 70
     0
 43
0.0
 10
-21344.6090456
 20
-69.5262906887001
 10
-21428.4309774
 20
-60.38708273500015
 10
-21512.2529216
 20
-51.2479869939998
 10
-21596.0748775
 20
-42.10899704059921
 10
-21679.8968444
 20
-32.97010692700132
 10
-21763.7188219
 20
-23.83131113929994
 10
-21847.5408092
 20
-14.69260455900076
 10
-21931.3628058
 20
-5.553982428598829
 10
-22015.1848113
 20
3.584559679649828
 10
-22099.0068252
 20
12.72302589139872
 10
-22182.8288471
 20
21.86142005549846
 10
-22266.6508766
 20
30.99974576659952
 10
-22350.4729133
 20
40.13800638569955
 10
-22434.2949569
 20
49.27620505870073
 10
-22518.117007
 20
58.41434473310073
 10
-22601.9390633
 20
67.55242817359976
 10
-22685.7611255
 20
76.69045797560102
 10
-22769.5831935
 20
85.82843657830017
 10
-22853.4052668
 20
94.96636627590124
 10
-22937.2273453
 20
104.1042492279994
 10
-23021.0494288
 20
113.2420874700001
 10
-23104.871517
 20
122.3798829209991
 10
-23188.6936098
 20
131.5176373930008
 10
-23272.5157069
 20
140.6553525970012
 10
-23356.3378081
 20
149.7930301499982
 10
-23440.1599134
 20
158.9306715829989
 10
-23523.9820225
 20
168.0682783449993
 10
-23607.8041353
 20
177.2058518080012
 10
-23691.6262517
 20
186.3433932730004
 10
-23775.4483714
 20
195.4809039770007
 10
-23859.2704945
 20
204.6183850900015
 10
-23943.0926206
 20
213.7558377269997
 10
-24026.9147499
 20
222.893262947
 10
-24110.736882
 20
232.0306617560018
 10
-24194.559017
 20
241.1680351130017
 10
-24278.3811547
 20
250.3053839310014
 10
-24362.203295
 20
259.4427090799982
 10
-24446.0254378
 20
268.580011389
 10
-24529.8475831
 20
277.7172916490017
  0
ENDBLK
  5
10E
330
10A
100
AcDbEntity
  8
0
100
AcDbBlockEnd
  0
BLOCK
  5
112
330
10F
100
AcDbEntity
  8
0
100
AcDbBlockBegin
  2
#POLYLINE(18)
 70
     0
 10
0.0
 20
0.0
 30
0.0
  3
#POLYLINE(18)
  1
#POLYLINE(18)
  0
LWPOLYLINE
  5
110
330
10F
100
AcDbEntity
  8
input_beam_width
100
AcDbPolyline
 90
       10
 70
     0
 43
0.0
 10
-27265.461098
 20
130.5039125799995
 10
-27261.8298991
 20
129.4841476789989
 10
-27258.1987003
 20
128.4643826989995
 10
-27254.5675015
 20
127.4446176390011
 10
-27250.9363027
 20
126.4248525000003
 10
-27247.3051039
 20
125.4050872810003
 10
-27243.6739051
 20
124.3853219830016
 10
-27240.0427064
 20
123.3655566060006
 10
-27236.4115077
 20
122.3457911490004
 10
-27232.780309
 20
121.3260256130015
  0
ENDBLK
  5
113
330
10F
100
AcDbEntity
  8
0
100
AcDbBlockEnd
  0
BLOCK
  5
117
330
114
100
AcDbEntity
  8
0
100
AcDbBlockBegin
  2
#POLYLINE(19)
 70
     0
 10
0.0
 20
0.0
 30
0.0
  3
#POLYLINE(19)
  1
#POLYLINE(19)
  0
LWPOLYLINE
  5
115
330
114
100
AcDbEntity
  8
input_beam_width
100
AcDbPolyline
 90
       10
 70
     0
 43
0.0
 10
-27252.6828794
 20
143.4037042320015
 10
-27249.1463675
 20
142.4105550569984
 10
-27245.6098556
 20
141.4174059569996
 10
-27242.0733437
 20
140.4242569320013
 10
-27238.5368317
 20
139.4311079830004
 10
-27235.0003197
 20
138.4379591090001
 10
-27231.4638077
 20
137.4448103100003
 10
-27227.9272957
 20
136.4516615870016
 10
-27224.3907837
 20
135.4585129389998
 10
-27220.8542716
 20
134.4653643659985
  0
ENDBLK
  5
118
330
114
100
AcDbEntity
  8
0
100
AcDbBlockEnd
  0
BLOCK
  5
11C
330
119
100
AcDbEntity
  8
0
100
AcDbBlockBegin
  2
#POLYLINE(20)
 70
     0
 10
0.0
 20
0.0
 30
0.0
  3
#POLYLINE(20)
  1
#POLYLINE(20)
  0
LWPOLYLINE
  5
11A
330
119
100
AcDbEntity
  8
input_beam_width
100
AcDbPolyline
 90
       15
 70
     0
 43
0.0
 10
-27521.1185129
 20
26535.651217
 10
-27538.3660108
 20
24650.48534030001
 10
-27555.6279137
 20
22765.3196001
 10
-27572.906693
 20
20880.1540196
 10
-27590.2053201
 20
18994.9886271
 10
-27607.5273623
 20
17109.8234564
 10
-27624.8770813
 20
15224.6585477
 10
-27642.2595227
 20
13339.4939488
 10
-27659.6805689
 20
11454.3297155
 10
-27677.1469186
 20
9569.16591126
 10
-27694.6659332
 20
7684.002605670001
 10
-27712.2452932
 20
5798.839871510001
 10
-27729.8924208
 20
3913.677779059999
 10
-27747.6136971
 20
2028.51638873
 10
-27765.4135998
 20
143.3557429460016
  0
ENDBLK
  5
11D
330
119
100
AcDbEntity
  8
0
100
AcDbBlockEnd
  0
BLOCK
  5
121
330
11E
100
AcDbEntity
  8
0
100
AcDbBlockBegin
  2
#POLYLINE(21)
 70
     0
 10
0.0
 20
0.0
 30
0.0
  3
#POLYLINE(21)
  1
#POLYLINE(21)
  0
LWPOLYLINE
  5
11F
330
11E
100
AcDbEntity
  8
input_beam_width
100
AcDbPolyline
 90
       15
 70
     0
 43
0.0
 10
-27496.9774501
 20
26535.6512169
 10
-27515.4411673
 20
24649.5677561
 10
-27533.8904643
 20
22763.4841586
 10
-27552.322866
 20
20877.4004012
 10
-27570.7353959
 20
18991.3164556
 10
-27589.1244803
 20
17105.2322881
 10
-27607.4858496
 20
15219.147858
 10
-27625.8144488
 20
13333.0631177
 10
-27644.1043839
 20
11446.9780112
 10
-27662.3489439
 20
9560.89247508
 10
-27680.5407541
 20
7674.80643945
 10
-27698.6721227
 20
5788.719831480001
 10
-27716.7356194
 20
3902.632580820002
 10
-27734.7248624
 20
2016.544627020001
 10
-27752.6353811
 20
130.4559277699991
  0
ENDBLK
  5
122
330
11E
100
AcDbEntity
  8
0
100
AcDbBlockEnd
  0
BLOCK
  5
126
330
123
100
AcDbEntity
  8
0
100
AcDbBlockBegin
  2
#POLYLINE(22)
 70
     0
 10
0.0
 20
0.0
 30
0.0
  3
#POLYLINE(22)
  1
#POLYLINE(22)
  0
LWPOLYLINE
  5
124
330
123
100
AcDbEntity
  8
input_beam_width
100
AcDbPolyline
 90
       15
 70
     0
 43
0.0
 10
-27252.6828543
 20
143.4037295439994
 10
-27270.4827227
 20
2028.560947739999
 10
-27288.203965
 20
3913.71891046
 10
-27305.8510591
 20
5798.877575310002
 10
-27323.4303858
 20
7684.036881870001
 10
-27340.9493676
 20
9569.19675984
 10
-27358.4156848
 20
11454.3571365
 10
-27375.8366988
 20
13339.5179422
 10
-27393.2191081
 20
15224.6791134
 10
-27410.5687953
 20
17109.8405945
 10
-27427.8908058
 20
18995.0023376
 10
-27445.1894013
 20
20880.1643025
 10
-27462.4681491
 20
22765.3264553
 10
-27479.7300206
 20
24650.4887679
 10
-27496.9774871
 20
26535.651217
  0
ENDBLK
  5
127
330
123
100
AcDbEntity
  8
0
100
AcDbBlockEnd
  0
BLOCK
  5
12B
330
128
100
AcDbEntity
  8
0
100
AcDbBlockBegin
  2
#POLYLINE(23)
 70
     0
 10
0.0
 20
0.0
 30
0.0
  3
#POLYLINE(23)
  1
#POLYLINE(23)
  0
LWPOLYLINE
  5
129
330
128
100
AcDbEntity
  8
input_beam_width
100
AcDbPolyline
 90
       15
 70
     0
 43
0.0
 10
-27265.4610737
 20
130.5039370550003
 10
-27283.3715619
 20
2016.589207059998
 10
-27301.3607739
 20
3902.6737316
 10
-27319.4242393
 20
5788.757553020001
 10
-27337.5555761
 20
7674.840731749999
 10
-27355.7473543
 20
9560.92333814
 10
-27373.9918818
 20
11447.005445
 10
-27392.2817842
 20
13333.0871223
 10
-27410.6103505
 20
15219.1684334
 10
-27428.9716868
 20
17105.2494342
 10
-27447.360738
 20
18991.3301726
 10
-27465.7732344
 20
20877.4106889
 10
-27484.2056027
 20
22763.4910171
 10
-27502.6548662
 20
24649.5711853
 10
-27521.1185499
 20
26535.6512169
  0
ENDBLK
  5
12C
330
128
100
AcDbEntity
  8
0
100
AcDbBlockEnd
  0
BLOCK
  5
130
330
12D
100
AcDbEntity
  8
0
100
AcDbBlockBegin
  2
#POLYLINE(24)
 70
     0
 10
0.0
 20
0.0
 30
0.0
  3
#POLYLINE(24)
  1
#POLYLINE(24)
  0
LWPOLYLINE
  5
12E
330
12D
100
AcDbEntity
  8
input_beam_width
100
AcDbPolyline
 90
       10
 70
     0
 43
0.0
 10
-27232.7802902
 20
121.3260463799998
 10
-26578.5379837
 20
100.1529368330011
 10
-25924.2959497
 20
78.97140489640151
 10
-25270.0541862
 20
57.78151122880081
 10
-24615.8126902
 20
36.5833464392017
 10
-23961.571458
 20
15.37702945529963
 10
-23307.3304849
 20
-5.837294557240966
 10
-22653.0897653
 20
-27.05945664389947
 10
-21998.8492931
 20
-48.28926678599964
 10
-21344.6090616
 20
-69.52651680679992
  0
ENDBLK
  5
131
330
12D
100
AcDbEntity
  8
0
100
AcDbBlockEnd
  0
BLOCK
  5
135
330
132
100
AcDbEntity
  8
0
100
AcDbBlockBegin
  2
#POLYLINE(25)
 70
     0
 10
0.0
 20
0.0
 30
0.0
  3
#POLYLINE(25)
  1
#POLYLINE(25)
  0
LWPOLYLINE
  5
133
330
132
100
AcDbEntity
  8
input_beam_width
100
AcDbPolyline
 90
       10
 70
     0
 43
0.0
 10
-27220.8542522
 20
134.4653856930017
 10
-26567.8262523
 20
113.3475279189988
 10
-25914.7979808
 20
92.238060584099
 10
-25261.76944
 20
71.13692291549887
 10
-24608.7406325
 20
50.0440244327001
 10
-23955.7115624
 20
28.95924656739953
 10
-23302.6822342
 20
7.882444730668794
 10
-22649.6526535
 20
-13.18654925790179
 10
-21996.6228263
 20
-34.24792446889842
 10
-21343.5927593
 20
-55.30188798329982
  0
ENDBLK
  5
136
330
132
100
AcDbEntity
  8
0
100
AcDbBlockEnd
  0
BLOCK
  5
13A
330
137
100
AcDbEntity
  8
0
100
AcDbBlockBegin
  2
#POLYLINE(26)
 70
     0
 10
0.0
 20
0.0
 30
0.0
  3
#POLYLINE(26)
  1
#POLYLINE(26)
  0
LWPOLYLINE
  5
138
330
137
100
AcDbEntity
  8
input_beam_width
100
AcDbPolyline
 90
       10
 70
     0
 43
0.0
 10
-21344.6090685
 20
-69.52661444100158
 10
-21341.2503591
 20
-69.6753967151999
 10
-21337.8916498
 20
-69.8241790799002
 10
-21334.5329404
 20
-69.97296153509888
 10
-21331.1742311
 20
-70.12174408079954
 10
-21327.8155218
 20
-70.27052671699857
 10
-21324.4568124
 20
-70.41930944380147
 10
-21321.0981031
 20
-70.56809226109908
 10
-21317.7393938
 20
-70.71687516909878
 10
-21314.3806845
 20
-70.86565816760049
  0
ENDBLK
  5
13B
330
137
100
AcDbEntity
  8
0
100
AcDbBlockEnd
  0
BLOCK
  5
13F
330
13C
100
AcDbEntity
  8
0
100
AcDbBlockBegin
  2
#POLYLINE(27)
 70
     0
 10
0.0
 20
0.0
 30
0.0
  3
#POLYLINE(27)
  1
#POLYLINE(27)
  0
LWPOLYLINE
  5
13D
330
13C
100
AcDbEntity
  8
input_beam_width
100
AcDbPolyline
 90
       10
 70
     0
 43
0.0
 10
-21343.5927664
 20
-55.30198721999841
 10
-21340.2617455
 20
-55.4506608103984
 10
-21336.9307245
 20
-55.59933431170066
 10
-21333.5997036
 20
-55.74800772410163
 10
-21330.2686826
 20
-55.89668104740122
 10
-21326.9376617
 20
-56.04535428170129
 10
-21323.6066407
 20
-56.19402742689999
 10
-21320.2756197
 20
-56.34270048309918
 10
-21316.9445987
 20
-56.49137345009876
 10
-21313.6135778
 20
-56.64004632800061
  0
ENDBLK
  5
140
330
13C
100
AcDbEntity
  8
0
100
AcDbBlockEnd
  0
BLOCK
  5
144
330
141
100
AcDbEntity
  8
0
100
AcDbBlockBegin
  2
#POLYLINE(28)
 70
     0
 10
0.0
 20
0.0
 30
0.0
  3
#POLYLINE(28)
  1
#POLYLINE(28)
  0
LWPOLYLINE
  5
142
330
141
100
AcDbEntity
  8
aux_beam_width
100
AcDbPolyline
 90
       10
 70
     0
 43
0.0
 10
228.725146326
 20
-4583.622669640001
 10
174.1643716520011
 20
-5817.038565539999
 10
119.5976969110015
 20
-7050.454200299999
 10
65.02508556750035
 20
-8283.86957231
 10
10.44650996369819
 20
-9517.28468034
 10
-44.13804846929997
 20
-10750.6995236
 10
-98.72859906810118
 20
-11984.1141016
 10
-153.3251418649998
 20
-13217.5284144
 10
-207.9276675869987
 20
-14450.9424624
 10
-262.5361577289987
 20
-15684.3562464
  0
ENDBLK
  5
145
330
141
100
AcDbEntity
  8
0
100
AcDbBlockEnd
  0
BLOCK
  5
149
330
146
100
AcDbEntity
  8
0
100
AcDbBlockBegin
  2
#POLYLINE(29)
 70
     0
 10
0.0
 20
0.0
 30
0.0
  3
#POLYLINE(29)
  1
#POLYLINE(29)
  0
LWPOLYLINE
  5
147
330
146
100
AcDbEntity
  8
aux_beam_width
100
AcDbPolyline
 90
       10
 70
     0
 43
0.0
 10
252.0357339170005
 20
-4584.356683829999
 10
197.4139026340017
 20
-5817.802955790001
 10
142.7979717249982
 20
-7051.24948889
 10
88.1879777296017
 20
-8284.69628476
 10
33.58394831059923
 20
-9518.14334462
 10
-21.01409796089865
 20
-10751.5906693
 10
-75.60615174649865
 20
-11985.0382592
 10
-130.1922130130006
 20
-13218.4861143
 10
-184.7722910330012
 20
-14451.9342343
 10
-239.3464043130007
 20
-15685.3826182
  0
ENDBLK
  5
14A
330
146
100
AcDbEntity
  8
0
100
AcDbBlockEnd
  0
BLOCK
  5
14E
330
14B
100
AcDbEntity
  8
0
100
AcDbBlockBegin
  2
#POLYLINE(30)
 70
     0
 10
0.0
 20
0.0
 30
0.0
  3
#POLYLINE(30)
  1
#POLYLINE(30)
  0
LWPOLYLINE
  5
14C
330
14B
100
AcDbEntity
  8
aux_beam_width
100
AcDbPolyline
 90
      100
 70
     0
 43
0.0
 10
131.0494078779993
 20
-15694.693801
 10
132.2714626400011
 20
-15582.468173
 10
133.4935174829989
 20
-15470.2425451
 10
134.7155724110016
 20
-15358.0169171
 10
135.9376274259994
 20
-15245.7912892
 10
137.1596825289998
 20
-15133.5656612
 10
138.3817377240011
 20
-15021.3400333
 10
139.6037930130005
 20
-14909.1144053
 10
140.8258483989994
 20
-14796.8887774
 10
142.0479038839985
 20
-14684.6631494
 10
143.2699594719998
 20
-14572.4375215
 10
144.4920151650003
 20
-14460.2118935
 10
145.7140709669984
 20
-14347.9862656
 10
146.9361268809989
 20
-14235.7606377
 10
148.158182911
 20
-14123.5350097
 10
149.380239058999
 20
-14011.3093818
 10
150.6022953300017
 20
-13899.0837539
 10
151.8243517279989
 20
-13786.8581259
 10
153.0464082559993
 20
-13674.632498
 10
154.2684649190014
 20
-13562.4068701
 10
155.4905217209998
 20
-13450.1812422
 10
156.7125786670003
 20
-13337.9556142
 10
157.9346357620016
 20
-13225.7299863
 10
159.1566930090012
 20
-13113.5043584
 10
160.3787504159991
 20
-13001.2787305
 10
161.6008079870007
 20
-12889.0531026
 10
162.822865727001
 20
-12776.8274747
 10
164.0449236439999
 20
-12664.6018468
 10
165.2669817419992
 20
-12552.3762189
 10
166.4890400299992
 20
-12440.150591
 10
167.7110985120016
 20
-12327.9249631
 10
168.9331571980001
 20
-12215.6993352
 10
170.1552160940009
 20
-12103.4737073
 10
171.3772752080004
 20
-11991.2480795
 10
172.5993345489987
 20
-11879.0224516
 10
173.8213941260001
 20
-11766.7968237
 10
175.0434539470007
 20
-11654.5711959
 10
176.2655140230017
 20
-11542.345568
 10
177.487574363
 20
-11430.1199401
 10
178.7096349790008
 20
-11317.8943123
 10
179.9316958829986
 20
-11205.6686844
 10
181.1537570850014
 20
-11093.4430566
 10
182.3758186000014
 20
-10981.2174288
 10
183.5978804389997
 20
-10868.9918009
 10
184.8199426190004
 20
-10756.7661731
 10
186.0420051539986
 20
-10644.5405453
 10
187.2640680590011
 20
-10532.3149175
 10
188.4861313529982
 20
-10420.0892897
 10
189.7081950520005
 20
-10307.8636619
 10
190.9302591779997
 20
-10195.6380341
 10
192.1523237490001
 20
-10083.4124063
 10
193.3743887880009
 20
-9971.18677858
 10
194.5964543180016
 20
-9858.96115082
 10
195.8185203639987
 20
-9746.73552307
 10
197.040586952
 20
-9634.50989533
 10
198.2626541110003
 20
-9522.28426761
 10
199.4847218719988
 20
-9410.05863989
 10
200.7067902669987
 20
-9297.83301219
 10
201.9288593300007
 20
-9185.60738449
 10
203.1509291010007
 20
-9073.38175682
 10
204.3729996190013
 20
-8961.15612915
 10
205.5950709280005
 20
-8848.9305015
 10
206.8171430750008
 20
-8736.70487387
 10
208.0392161109994
 20
-8624.47924625
 10
209.2612900929998
 20
-8512.25361865
 10
210.4833650779983
 20
-8400.02799107
 10
211.7054411339996
 20
-8287.80236351
 10
212.9275183300015
 20
-8175.57673597
 10
214.1495967449991
 20
-8063.351108449999
 10
215.3716764609999
 20
-7951.12548096
 10
216.5937575729986
 20
-7838.89985349
 10
217.8158401809997
 20
-7726.67422606
 10
219.0379243969983
 20
-7614.44859865
 10
220.2600103440018
 20
-7502.222971269999
 10
221.482098157001
 20
-7389.997343930001
 10
222.7041879870012
 20
-7277.771716629999
 10
223.9262800010001
 20
-7165.54608937
 10
225.1483743839999
 20
-7053.320462150001
 10
226.3704713439984
 20
-6941.09483498
 10
227.5925711130003
 20
-6828.86920786
 10
228.8146739539989
 20
-6716.643580799999
 10
230.036780159
 20
-6604.41795381
 10
231.2588900640003
 20
-6492.19232688
 10
232.4810040470002
 20
-6379.96670003
 10
233.7031225409992
 20
-6267.74107326
 10
234.9252460440002
 20
-6155.51544659
 10
236.1473751259982
 20
-6043.28982002
 10
237.3695104510007
 20
-5931.06419357
 10
238.5916527910013
 20
-5818.838567250001
 10
239.8138030500013
 20
-5706.61294108
 10
241.0359622969991
 20
-5594.387315079999
 10
242.2581317980002
 20
-5482.16168927
 10
243.4803130729997
 20
-5369.936063680001
 10
244.7025079560008
 20
-5257.71043834
 10
245.9247186819994
 20
-5145.4848133
 10
247.146948005
 20
-5033.25918861
 10
248.3691993559987
 20
-4921.03356433
 10
249.5914770650015
 20
-4808.807940549999
 10
250.8137866760007
 20
-4696.58231736
 10
252.0361354050001
 20
-4584.35669491
  0
ENDBLK
  5
14F
330
14B
100
AcDbEntity
  8
0
100
AcDbBlockEnd
  0
BLOCK
  5
153
330
150
100
AcDbEntity
  8
0
100
AcDbBlockBegin
  2
#POLYLINE(31)
 70
     0
 10
0.0
 20
0.0
 30
0.0
  3
#POLYLINE(31)
  1
#POLYLINE(31)
  0
LWPOLYLINE
  5
151
330
150
100
AcDbEntity
  8
aux_beam_width
100
AcDbPolyline
 90
      100
 70
     0
 43
0.0
 10
-66.4146074763994
 20
-15692.492659
 10
-63.43335677159848
 20
-15580.281852
 10
-60.45210614869939
 20
-15468.0710449
 10
-57.47085561000131
 20
-15355.8602378
 10
-54.48960515790168
 20
-15243.6494307
 10
-51.5083547946997
 20
-15131.4386236
 10
-48.52710452300016
 20
-15019.2278166
 10
-45.54585434529872
 20
-14907.0170095
 10
-42.56460426440026
 20
-14794.8062024
 10
-39.58335428309874
 20
-14682.5953953
 10
-36.60210440419905
 20
-14570.3845882
 10
-33.62085463100084
 20
-14458.1737811
 10
-30.63960496639993
 20
-14345.962974
 10
-27.65835541380147
 20
-14233.7521669
 10
-24.67710597659971
 20
-14121.5413598
 10
-21.69585665839986
 20
-14009.3305527
 10
-18.71460746290177
 20
-13897.1197456
 10
-15.73335839389983
 20
-13784.9089385
 10
-12.75210945539948
 20
-13672.6981314
 10
-9.770860651751718
 20
-13560.4873243
 10
-6.789611987231183
 20
-13448.2765172
 10
-3.808363466429
 20
-13336.06571
 10
-0.8271150941327505
 20
-13223.8549029
 10
2.154133124669897
 20
-13111.6440958
 10
5.135381184769358
 20
-12999.4332887
 10
8.116629080701387
 20
-12887.2224815
 10
11.09787680669979
 20
-12775.0116744
 10
14.07912435690014
 20
-12662.8008673
 10
17.06037172500146
 20
-12550.5900601
 10
20.04161890440082
 20
-12438.379253
 10
23.02286588829884
 20
-12326.1684458
 10
26.0041126692995
 20
-12213.9576387
 10
28.98535923999953
 20
-12101.7468315
 10
31.96660559239899
 20
-11989.5360244
 10
34.94785171799958
 20
-11877.3252172
 10
37.92909760820112
 20
-11765.11441
 10
40.91034325359942
 20
-11652.9036029
 10
43.89158864449928
 20
-11540.6927957
 10
46.87283377049971
 20
-11428.4819885
 10
49.85407862090142
 20
-11316.2711813
 10
52.83532318429934
 20
-11204.0603741
 10
55.81656744840075
 20
-11091.8495669
 10
58.79781140060004
 20
-10979.6387597
 10
61.77905502720023
 20
-10867.4279525
 10
64.76029831410051
 20
-10755.2171453
 10
67.7415412461014
 20
-10643.0063381
 10
70.72278380699936
 20
-10530.7955309
 10
73.7040259798996
 20
-10418.5847236
 10
76.68526774660131
 20
-10306.3739164
 10
79.66650908780139
 20
-10194.1631091
 10
82.64774998310168
 20
-10081.9523019
 10
85.62899041049968
 20
-9969.7414946
 10
88.61023034690152
 20
-9857.53068732
 10
91.59146976729971
 20
-9745.31988003
 10
94.57270864510065
 20
-9633.10907274
 10
97.55394695200084
 20
-9520.89826543
 10
100.5351846570011
 20
-9408.68745811
 10
103.5164217290003
 20
-9296.47665077
 10
106.4976581310002
 20
-9184.26584343
 10
109.4788938269994
 20
-9072.05503607
 10
112.4601287750011
 20
-8959.8442287
 10
115.4413629310002
 20
-8847.63342131
 10
118.4225962499986
 20
-8735.42261391
 10
121.4038286789983
 20
-8623.21180649
 10
124.3850601630002
 20
-8511.00099905
 10
127.366290643
 20
-8398.7901916
 10
130.3475200520006
 20
-8286.57938412
 10
133.3287483210006
 20
-8174.36857663
 10
136.3099753710012
 20
-8062.157769109999
 10
139.2912011189983
 20
-7949.946961559999
 10
142.2724254720015
 20
-7837.736153990001
 10
145.2536483279982
 20
-7725.525346390001
 10
148.2348695760011
 20
-7613.31453876
 10
151.2160890919986
 20
-7501.1037311
 10
154.1973067420004
 20
-7388.89292341
 10
157.1785223750012
 20
-7276.682115669999
 10
160.1597358229992
 20
-7164.471307899999
 10
163.140946902
 20
-7052.260500079999
 10
166.1221554030017
 20
-6940.049692209999
 10
169.103361092999
 20
-6827.83888429
 10
172.0845637120001
 20
-6715.628076320001
 10
175.0657629650013
 20
-6603.41726828
 10
178.0469585179999
 20
-6491.20646017
 10
181.0281499910016
 20
-6378.99565198
 10
184.0093369509996
 20
-6266.78484371
 10
186.9905189009987
 20
-6154.57403535
 10
189.9716952700001
 20
-6042.363226879999
 10
192.9528653929992
 20
-5930.152418289999
 10
195.9340284989994
 20
-5817.94160957
 10
198.9151836810015
 20
-5705.73080071
 10
201.8963298730014
 20
-5593.51999167
 10
204.8774658039983
 20
-5481.309182450001
 10
207.8585899559985
 20
-5369.098373000001
 10
210.8397004930011
 20
-5256.887563299999
 10
213.8207951769982
 20
-5144.6767533
 10
216.8018712519988
 20
-5032.465942949999
 10
219.7829252849988
 20
-4920.255132189999
 10
222.7639529410008
 20
-4808.04432094
 10
225.7449486699988
 20
-4695.83350909
 10
228.7259052459995
 20
-4583.622696499999
  0
ENDBLK
  5
154
330
150
100
AcDbEntity
  8
0
100
AcDbBlockEnd
  0
BLOCK
  5
158
330
155
100
AcDbEntity
  8
0
100
AcDbBlockBegin
  2
#POLYLINE(32)
 70
     0
 10
0.0
 20
0.0
 30
0.0
  3
#POLYLINE(32)
  1
#POLYLINE(32)
  0
LWPOLYLINE
  5
156
330
155
100
AcDbEntity
  8
aux_beam_width
100
AcDbPolyline
 90
      100
 70
     0
 43
0.0
 10
-4700.93831016
 20
306.9885746649998
 10
-4852.4432485
 20
308.597162656999
 10
-5003.948186460002
 20
310.2057924399996
 10
-5155.45312405
 20
311.8144623240005
 10
-5306.958061279998
 20
313.4231707100007
 10
-5458.462998169998
 20
315.0319160809995
 10
-5609.967934730001
 20
316.6406969999989
 10
-5761.47287098
 20
318.2495120999993
 10
-5912.97780692
 20
319.8583600880011
 10
-6064.482742569999
 20
321.4672397299983
 10
-6215.987677929999
 20
323.0761498569991
 10
-6367.492613030001
 20
324.6850893539995
 10
-6518.997547859999
 20
326.2940571610015
 10
-6670.502482439999
 20
327.9030522680005
 10
-6822.00741677
 20
329.5120737120014
 10
-6973.512350879999
 20
331.1211205750005
 10
-7125.01728475
 20
332.7301919800011
 10
-7276.522218400001
 20
334.3392870919997
 10
-7428.027151850001
 20
335.9484051110012
 10
-7579.532085089999
 20
337.5575452740013
 10
-7731.037018130002
 20
339.1667068509996
 10
-7882.54195097
 20
340.7758891439989
 10
-8034.04688364
 20
342.3850914840004
 10
-8185.551816120002
 20
343.994313231
 10
-8337.05674843
 20
345.6035537729986
 10
-8488.561680569997
 20
347.2128125210002
 10
-8640.06661255
 20
348.8220889129989
 10
-8791.57154437
 20
350.4313824070014
 10
-8943.076476039998
 20
352.0406924859999
 10
-9094.581407550002
 20
353.6500186509984
 10
-9246.08633893
 20
355.2593604249996
 10
-9397.59127016
 20
356.8687173469989
 10
-9549.09620126
 20
358.4780889760004
 10
-9700.60113222
 20
360.0874748880015
 10
-9852.10606306
 20
361.6968746730017
 10
-10003.6109938
 20
363.3062879390018
 10
-10155.1159244
 20
364.915714308001
 10
-10306.6208548
 20
366.5251534150011
 10
-10458.1257852
 20
368.1346049089989
 10
-10609.6307154
 20
369.7440684510002
 10
-10761.1356456
 20
371.3535437169994
 10
-10912.6405756
 20
372.9630303900012
 10
-11064.1455055
 20
374.5725281679988
 10
-11215.6504354
 20
376.1820367590008
 10
-11367.1553651
 20
377.791555879001
 10
-11518.6602947
 20
379.4010852569991
 10
-11670.1652243
 20
381.0106246270007
 10
-11821.6701537
 20
382.6201737379997
 10
-11973.1750831
 20
384.2297323409985
 10
-12124.6800124
 20
385.8393001990007
 10
-12276.1849416
 20
387.4488770839998
 10
-12427.6898707
 20
389.0584627710014
 10
-12579.1947997
 20
390.6680570470016
 10
-12730.6997287
 20
392.2776597019983
 10
-12882.2046576
 20
393.8872705370013
 10
-13033.7095864
 20
395.496889353999
 10
-13185.2145151
 20
397.1065159659993
 10
-13336.7194438
 20
398.7161501900009
 10
-13488.2243724
 20
400.3257918480012
 10
-13639.7293009
 20
401.9354407680003
 10
-13791.2342294
 20
403.5450967830002
 10
-13942.7391578
 20
405.1547597329991
 10
-14094.2440861
 20
406.7644294599995
 10
-14245.7490144
 20
408.3741058119995
 10
-14397.2539426
 20
409.9837886419991
 10
-14548.7588708
 20
411.593477806
 10
-14700.2637989
 20
413.203173165999
 10
-14851.768727
 20
414.8128745870017
 10
-15003.2736549
 20
416.4225819370004
 10
-15154.7785829
 20
418.0322950890004
 10
-15306.2835108
 20
419.6420139200018
 10
-15457.7884386
 20
421.2517383090017
 10
-15609.2933664
 20
422.861468138999
 10
-15760.7982941
 20
424.4712032979987
 10
-15912.3032218
 20
426.0809436730015
 10
-16063.8081494
 20
427.6906891580002
 10
-16215.313077
 20
429.3004396489996
 10
-16366.8180046
 20
430.9101950440017
 10
-16518.3229321
 20
432.5199552429985
 10
-16669.8278595
 20
434.1297201509988
 10
-16821.332787
 20
435.7394896730002
 10
-16972.8377143
 20
437.3492637189993
 10
-17124.3426417
 20
438.9590421989997
 10
-17275.847569
 20
440.5688250269995
 10
-17427.3524962
 20
442.1786121190016
 10
-17578.8574234
 20
443.7884033929986
 10
-17730.3623506
 20
445.3981987670013
 10
-17881.8672778
 20
447.0079981650015
 10
-18033.3722049
 20
448.6178015100013
 10
-18184.8771319
 20
450.2276087280006
 10
-18336.382059
 20
451.8374197470002
 10
-18487.886986
 20
453.4472344960013
 10
-18639.3919129
 20
455.0570529069992
 10
-18790.8968399
 20
456.6668749109995
 10
-18942.4017668
 20
458.2767004449997
 10
-19093.9066936
 20
459.8865294429997
 10
-19245.4116205
 20
461.4963618430011
 10
-19396.9165473
 20
463.1061975849989
 10
-19548.421474
 20
464.7160366089993
 10
-19699.9264008
 20
466.3258788579988
  0
ENDBLK
  5
159
330
155
100
AcDbEntity
  8
0
100
AcDbBlockEnd
  0
BLOCK
  5
15D
330
15A
100
AcDbEntity
  8
0
100
AcDbBlockBegin
  2
#POLYLINE(33)
 70
     0
 10
0.0
 20
0.0
 30
0.0
  3
#POLYLINE(33)
  1
#POLYLINE(33)
  0
LWPOLYLINE
  5
15B
330
15A
100
AcDbEntity
  8
aux_beam_width
100
AcDbPolyline
 90
      100
 70
     0
 43
0.0
 10
-4700.781010459999
 20
277.4779233139998
 10
-4852.294127230001
 20
278.6722061190012
 10
-5003.807244380001
 20
279.8664471260017
 10
-5155.320361910002
 20
281.060648024999
 10
-5306.833479789999
 20
282.254810415001
 10
-5458.346598019998
 20
283.4489358149985
 10
-5609.859716570001
 20
284.6430256610001
 10
-5761.372835440001
 20
285.8370813190013
 10
-5912.885954609999
 20
287.0311040859997
 10
-6064.39907408
 20
288.225095193
 10
-6215.912193820001
 20
289.4190558100017
 10
-6367.425313840002
 20
290.6129870529985
 10
-6518.938434129999
 20
291.8068899809987
 10
-6670.451554660001
 20
293.0007656060006
 10
-6821.964675440002
 20
294.1946148899988
 10
-6973.477796449999
 20
295.3884387510006
 10
-7124.99091769
 20
296.5822380659993
 10
-7276.504039150001
 20
297.776013671999
 10
-7428.01716082
 20
298.9697663670013
 10
-7579.530282699998
 20
300.163496915
 10
-7731.04340477
 20
301.3572060459992
 10
-7882.55652704
 20
302.5508944590001
 10
-8034.06964949
 20
303.7445628210007
 10
-8185.58277212
 20
304.9382117739988
 10
-8337.09589492
 20
306.131841931001
 10
-8488.609017900002
 20
307.3254538779984
 10
-8640.122141029999
 20
308.5190481799982
 10
-8791.635264329998
 20
309.7126253770002
 10
-8943.148387779998
 20
310.9061859879985
 10
-9094.661511370003
 20
312.0997305099991
 10
-9246.174635110001
 20
313.2932594220001
 10
-9397.68775899
 20
314.4867731839986
 10
-9549.200883010002
 20
315.6802722370012
 10
-9700.71400716
 20
316.8737570060002
 10
-9852.227131439999
 20
318.0672278999991
 10
-10003.7402558
 20
319.260685311001
 10
-10155.2533804
 20
320.454129619
 10
-10306.766505
 20
321.647561187001
 10
-10458.2796298
 20
322.8409803659997
 10
-10609.7927546
 20
324.0343874960017
 10
-10761.3058796
 20
325.2277829019986
 10
-10912.8190047
 20
326.4211668979988
 10
-11064.3321299
 20
327.6145397879991
 10
-11215.8452552
 20
328.8079018649987
 10
-11367.3583805
 20
330.0012534109992
 10
-11518.871506
 20
331.1945946999986
 10
-11670.3846316
 20
332.387925993
 10
-11821.8977572
 20
333.5812475470011
 10
-11973.410883
 20
334.7745596060013
 10
-12124.9240088
 20
335.9678624090011
 10
-12276.4371347
 20
337.1611561860009
 10
-12427.9502607
 20
338.354441159001
 10
-12579.4633868
 20
339.5477175419983
 10
-12730.976513
 20
340.7409855449987
 10
-12882.4896392
 20
341.9342453690006
 10
-13034.0027655
 20
343.1274972089996
 10
-13185.5158919
 20
344.3207412529991
 10
-13337.0290183
 20
345.513977685001
 10
-13488.5421448
 20
346.7072066830005
 10
-13640.0552714
 20
347.9004284170005
 10
-13791.5683981
 20
349.0936430559996
 10
-13943.0815248
 20
350.2868507599997
 10
-14094.5946516
 20
351.4800516860014
 10
-14246.1077784
 20
352.6732459859995
 10
-14397.6209053
 20
353.8664338080016
 10
-14549.1340322
 20
355.0596152949984
 10
-14700.6471593
 20
356.2527905850002
 10
-14852.1602863
 20
357.4459598149988
 10
-15003.6734134
 20
358.639123115001
 10
-15155.1865406
 20
359.8322806120013
 10
-15306.6996679
 20
361.0254324300004
 10
-15458.2127951
 20
362.2185786900009
 10
-15609.7259225
 20
363.4117195079998
 10
-15761.2390498
 20
364.6048549970001
 10
-15912.7521773
 20
365.7979852690005
 10
-16064.2653048
 20
366.9911104310013
 10
-16215.7784323
 20
368.1842305860009
 10
-16367.2915598
 20
369.3773458379983
 10
-16518.8046875
 20
370.5704562850005
 10
-16670.3178151
 20
371.7635620229994
 10
-16821.8309428
 20
372.9566631460002
 10
-16973.3440705
 20
374.1497597449998
 10
-17124.8571983
 20
375.3428519100016
 10
-17276.3703261
 20
376.5359397259999
 10
-17427.883454
 20
377.7290232779997
 10
-17579.3965819
 20
378.9221026490013
 10
-17730.9097098
 20
380.115177918
 10
-17882.4228378
 20
381.3082491630012
 10
-18033.9359658
 20
382.5013164609991
 10
-18185.4490939
 20
383.6943798860011
 10
-18336.962222
 20
384.8874395099992
 10
-18488.4753501
 20
386.0804954029991
 10
-18639.9884782
 20
387.273547634999
 10
-18791.5016064
 20
388.4665962719992
 10
-18943.0147346
 20
389.6596413810003
 10
-19094.5278629
 20
390.8526830240007
 10
-19246.0409912
 20
392.0457212649999
 10
-19397.5541195
 20
393.2387561639989
 10
-19549.0672478
 20
394.431787780999
 10
-19700.5803762
 20
395.624816173
  0
ENDBLK
  5
15E
330
15A
100
AcDbEntity
  8
0
100
AcDbBlockEnd
  0
BLOCK
  5
162
330
15F
100
AcDbEntity
  8
0
100
AcDbBlockBegin
  2
#POLYLINE(34)
 70
     0
 10
0.0
 20
0.0
 30
0.0
  3
#POLYLINE(34)
  1
#POLYLINE(34)
  0
LWPOLYLINE
  5
160
330
15F
100
AcDbEntity
  8
aux_beam_width
100
AcDbPolyline
 90
       10
 70
     0
 43
0.0
 10
136.9059774099987
 20
136.8449493469998
 10
-1629.98080786
 20
141.3870400829983
 10
-3396.867593089999
 20
145.9291487279988
 10
-5163.754378270001
 20
150.471275038999
 10
-6930.641163420001
 20
155.0134187750009
 10
-8697.527948529998
 20
159.5555797009984
 10
-10464.4147336
 20
164.0977575850011
 10
-12231.3015186
 20
168.6399522020001
 10
-13998.1883036
 20
173.1821633260006
 10
-15765.0750886
 20
177.7243907400007
  0
ENDBLK
  5
163
330
15F
100
AcDbEntity
  8
0
100
AcDbBlockEnd
  0
BLOCK
  5
167
330
164
100
AcDbEntity
  8
0
100
AcDbBlockBegin
  2
#POLYLINE(35)
 70
     0
 10
0.0
 20
0.0
 30
0.0
  3
#POLYLINE(35)
  1
#POLYLINE(35)
  0
LWPOLYLINE
  5
165
330
164
100
AcDbEntity
  8
aux_beam_width
100
AcDbPolyline
 90
       10
 70
     0
 43
0.0
 10
-65.92617922069985
 20
-65.89679155559861
 10
-1810.069117719999
 20
-62.33726290579943
 10
-3554.212056259999
 20
-58.77775168299922
 10
-5298.354994829999
 20
-55.21825765259928
 10
-7042.497933450002
 20
-51.65878058430098
 10
-8786.6408721
 20
-48.09932025189846
 10
-10530.7838108
 20
-44.53987643319851
 10
-12274.9267495
 20
-40.9804489097005
 10
-14019.0696883
 20
-37.42103746709836
 10
-15763.2126271
 20
-33.86164189460033
  0
ENDBLK
  5
168
330
164
100
AcDbEntity
  8
0
100
AcDbBlockEnd
  0
BLOCK
  5
16C
330
169
100
AcDbEntity
  8
0
100
AcDbBlockBegin
  2
#POLYLINE(36)
 70
     0
 10
0.0
 20
0.0
 30
0.0
  3
#POLYLINE(36)
  1
#POLYLINE(36)
  0
LWPOLYLINE
  5
16A
330
169
100
AcDbEntity
  8
aux_beam_width
100
AcDbPolyline
 90
       10
 70
     0
 43
0.0
 10
-9.485284759950446
 20
-122.4088451159987
 10
-15.81052613249994
 20
-1852.41816049
 10
-22.13578718520148
 20
-3582.427475789998
 10
-28.46106782530114
 20
-5312.43679102
 10
-34.78636796080173
 20
-7042.446106179999
 10
-41.11168749989884
 20
-8772.45542127
 10
-47.43702635170121
 20
-10502.4647363
 10
-53.76238442569957
 20
-12232.4740512
 10
-60.08776163199946
 20
-13962.4833661
 10
-66.41315788129941
 20
-15692.4926809
  0
ENDBLK
  5
16D
330
169
100
AcDbEntity
  8
0
100
AcDbBlockEnd
  0
BLOCK
  5
171
330
16E
100
AcDbEntity
  8
0
100
AcDbBlockBegin
  2
#POLYLINE(37)
 70
     0
 10
0.0
 20
0.0
 30
0.0
  3
#POLYLINE(37)
  1
#POLYLINE(37)
  0
LWPOLYLINE
  5
16F
330
16E
100
AcDbEntity
  8
aux_beam_width
100
AcDbPolyline
 90
       10
 70
     0
 43
0.0
 10
185.9006511970001
 20
72.34537682509836
 10
179.8064866310015
 20
-1679.547868450001
 10
173.7123422549994
 20
-3431.441113789999
 10
167.6182179729985
 20
-5183.334359209999
 10
161.5241136900004
 20
-6935.2276047
 10
155.4300293109991
 20
-8687.12085026
 10
149.3359647399993
 20
-10439.0140959
 10
143.2419198850002
 20
-12190.9073416
 10
137.1478946509997
 20
-13942.8005874
 10
131.0538889460004
 20
-15694.6938332
  0
ENDBLK
  5
172
330
16E
100
AcDbEntity
  8
0
100
AcDbBlockEnd
  0
BLOCK
  5
176
330
173
100
AcDbEntity
  8
0
100
AcDbBlockBegin
  2
#POLYLINE(38)
 70
     0
 10
0.0
 20
0.0
 30
0.0
  3
#POLYLINE(38)
  1
#POLYLINE(38)
  0
LWPOLYLINE
  5
174
330
173
100
AcDbEntity
  8
aux_beam_width
100
AcDbPolyline
 90
      100
 70
     0
 43
0.0
 10
-15763.2125853
 20
-33.86484327819926
 10
-15651.4708526
 20
-30.71995202640028
 10
-15539.7291199
 20
-27.57506084069973
 10
-15427.9873872
 20
-24.4301697228002
 10
-15316.2456545
 20
-21.28527867449884
 10
-15204.5039218
 20
-18.14038769780018
 10
-15092.7621891
 20
-14.99549679450138
 10
-14981.0204564
 20
-11.85060596670155
 10
-14869.2787236
 20
-8.705715216550743
 10
-14757.5369909
 20
-5.560824546260847
 10
-14645.7952582
 20
-2.415933958080132
 10
-14534.0535255
 20
0.7289565456158016
 10
-14422.3117928
 20
3.873846962371317
 10
-14310.57006
 20
7.018737289610726
 10
-14198.8283273
 20
10.16362752470013
 10
-14087.0865946
 20
13.30851766490014
 10
-13975.3448618
 20
16.45340770719849
 10
-13863.6031291
 20
19.59829764880124
 10
-13751.8613964
 20
22.74318748649966
 10
-13640.1196636
 20
25.88807721700141
 10
-13528.3779309
 20
29.03296683699955
 10
-13416.6361982
 20
32.17785634300162
 10
-13304.8944654
 20
35.32274573119867
 10
-13193.1527327
 20
38.46763499779991
 10
-13081.4109999
 20
41.61252413879993
 10
-12969.6692672
 20
44.75741315009873
 10
-12857.9275344
 20
47.90230202730163
 10
-12746.1858017
 20
51.04719076570109
 10
-12634.4440689
 20
54.19207936060047
 10
-12522.7023361
 20
57.33696780709943
 10
-12410.9606034
 20
60.48185609979919
 10
-12299.2188706
 20
63.626744233301
 10
-12187.4771378
 20
66.7716322019005
 10
-12075.7354051
 20
69.91651999939859
 10
-11963.9936723
 20
73.06140761970164
 10
-11852.2519395
 20
76.20629505590114
 10
-11740.5102067
 20
79.35118230120133
 10
-11628.7684739
 20
82.49606934819894
 10
-11517.0267411
 20
85.64095618910142
 10
-11405.2850083
 20
88.78584281590156
 10
-11293.5432755
 20
91.9307292199992
 10
-11181.8015427
 20
95.07561539240123
 10
-11070.0598099
 20
98.22050132349978
 10
-10958.3180771
 20
101.3653870029993
 10
-10846.5763443
 20
104.510272421001
 10
-10734.8346114
 20
107.6551575660014
 10
-10623.0928786
 20
110.800042425999
 10
-10511.3511458
 20
113.9449269879988
 10
-10399.6094129
 20
117.0898112389987
 10
-10287.8676801
 20
120.2346951660002
 10
-10176.1259472
 20
123.3795787519994
 10
-10064.3842143
 20
126.5244619830009
 10
-9952.64248147
 20
129.6693448400001
 10
-9840.90074859
 20
132.8142273070007
 10
-9729.1590157
 20
135.9591093630006
 10
-9617.417282800001
 20
139.1039909899991
 10
-9505.6755499
 20
142.2488721629998
 10
-9393.93381698
 20
145.3937528610004
 10
-9282.192084050002
 20
148.5386330580004
 10
-9170.450351120002
 20
151.6835127269987
 10
-9058.70861817
 20
154.8283918400011
 10
-8946.96688521
 20
157.9732703650006
 10
-8835.22515224
 20
161.1181482700013
 10
-8723.483419249998
 20
164.2630255190015
 10
-8611.74168625
 20
167.4079020719983
 10
-8499.99995324
 20
170.5527778889991
 10
-8388.258220210002
 20
173.6976529249987
 10
-8276.51648717
 20
176.8425271300002
 10
-8164.774754099999
 20
179.9874004519988
 10
-8053.033021020001
 20
183.1322728330015
 10
-7941.291287920001
 20
186.2771442099984
 10
-7829.549554789999
 20
189.4220145149993
 10
-7717.80782165
 20
192.5668836740006
 10
-7606.066088480002
 20
195.7117516040016
 10
-7494.324355280001
 20
198.8566182159993
 10
-7382.582622059999
 20
202.0014834110007
 10
-7270.840888800001
 20
205.1463470800009
 10
-7159.099155510001
 20
208.2912091030012
 10
-7047.357422189998
 20
211.4360693460003
 10
-6935.615688829999
 20
214.5809276610016
 10
-6823.87395542
 20
217.7257838840014
 10
-6712.132221970001
 20
220.8706378300012
 10
-6600.390488469999
 20
224.015489292
 10
-6488.648754919999
 20
227.1603380369997
 10
-6376.907021309999
 20
230.305183804001
 10
-6265.16528763
 20
233.4500262939982
 10
-6153.423553879999
 20
236.5948651699982
 10
-6041.681820049998
 20
239.7397000439996
 10
-5929.940086139999
 20
242.8845304729984
 10
-5818.198352120002
 20
246.0293559450001
 10
-5706.456617989999
 20
249.1741758649987
 10
-5594.714883740002
 20
252.3189895420001
 10
-5482.97314935
 20
255.4637961629996
 10
-5371.2314148
 20
258.6085947669999
 10
-5259.489680070001
 20
261.7533842119992
 10
-5147.747945119998
 20
264.8981631259994
 10
-5036.006209940002
 20
268.0429298519994
 10
-4924.264474470001
 20
271.1876823630009
 10
-4812.522738669999
 20
274.3324181579992
 10
-4700.781002470001
 20
277.477134110999
  0
ENDBLK
  5
177
330
173
100
AcDbEntity
  8
0
100
AcDbBlockEnd
  0
BLOCK
  5
17B
330
178
100
AcDbEntity
  8
0
100
AcDbBlockBegin
  2
#POLYLINE(39)
 70
     0
 10
0.0
 20
0.0
 30
0.0
  3
#POLYLINE(39)
  1
#POLYLINE(39)
  0
LWPOLYLINE
  5
179
330
178
100
AcDbEntity
  8
aux_beam_width
100
AcDbPolyline
 90
      100
 70
     0
 43
0.0
 10
-15765.0750577
 20
177.7176128969986
 10
-15653.3161002
 20
179.0233445150006
 10
-15541.5571427
 20
180.3290761989992
 10
-15429.7981852
 20
181.6348079499985
 10
-15318.0392277
 20
182.9405397709997
 10
-15206.2802702
 20
184.2462716640002
 10
-15094.5213127
 20
185.5520036300004
 10
-14982.7623552
 20
186.8577356720016
 10
-14871.0033977
 20
188.1634677910006
 10
-14759.2444402
 20
189.4691999899987
 10
-14647.4854827
 20
190.774932272001
 10
-14535.7265252
 20
192.0806646380006
 10
-14423.9675677
 20
193.3863970899984
 10
-14312.2086102
 20
194.6921296330001
 10
-14200.4496527
 20
195.9978622669987
 10
-14088.6906952
 20
197.3035949969999
 10
-13976.9317378
 20
198.6093278240005
 10
-13865.1727803
 20
199.9150607519987
 10
-13753.4138228
 20
201.2207937839994
 10
-13641.6548653
 20
202.5265269230003
 10
-13529.8959079
 20
203.8322601729997
 10
-13418.1369504
 20
205.1379935369987
 10
-13306.3779929
 20
206.4437270179988
 10
-13194.6190354
 20
207.7494606209984
 10
-13082.860078
 20
209.0551943499995
 10
-12971.1011205
 20
210.3609282090001
 10
-12859.3421631
 20
211.6666622010016
 10
-12747.5832056
 20
212.9723963329998
 10
-12635.8242482
 20
214.2781306079996
 10
-12524.0652907
 20
215.5838650309997
 10
-12412.3063333
 20
216.8895996089996
 10
-12300.5473758
 20
218.1953343450004
 10
-12188.7884184
 20
219.5010692469987
 10
-12077.0294609
 20
220.8068043189996
 10
-11965.2705035
 20
222.1125395689996
 10
-11853.5115461
 20
223.4182750030013
 10
-11741.7525886
 20
224.7240106280005
 10
-11629.9936312
 20
226.0297464510004
 10
-11518.2346738
 20
227.3354824810012
 10
-11406.4757164
 20
228.6412187239985
 10
-11294.716759
 20
229.9469551900002
 10
-11182.9578016
 20
231.2526918879994
 10
-11071.1988442
 20
232.5584288280006
 10
-10959.4398868
 20
233.8641660190005
 10
-10847.6809294
 20
235.169903471
 10
-10735.921972
 20
236.4756411970011
 10
-10624.1630146
 20
237.7813792080015
 10
-10512.4040572
 20
239.0871175169996
 10
-10400.6450999
 20
240.3928561360008
 10
-10288.8861425
 20
241.6985950810013
 10
-10177.1271852
 20
243.0043343649995
 10
-10065.3682278
 20
244.3100740059999
 10
-9953.609270469999
 20
245.6158140199987
 10
-9841.85031314
 20
246.9215544239996
 10
-9730.09135582
 20
248.2272952390013
 10
-9618.332398500002
 20
249.5330364840011
 10
-9506.573441200002
 20
250.8387781819984
 10
-9394.814483900002
 20
252.1445203559997
 10
-9283.055526609998
 20
253.4502630310017
 10
-9171.29656934
 20
254.7560062340017
 10
-9059.537612070002
 20
256.0617499930013
 10
-8947.778654820002
 20
257.3674943400001
 10
-8836.019697579999
 20
258.6732393070015
 10
-8724.26074035
 20
259.978984931
 10
-8612.50178314
 20
261.2847312500016
 10
-8500.74282594
 20
262.5904783059996
 10
-8388.983868750001
 20
263.8962261429988
 10
-8277.224911589998
 20
265.2019748109997
 10
-8165.465954439998
 20
266.5077243630003
 10
-8053.706997310001
 20
267.8134748550001
 10
-7941.94804019
 20
269.1192263519988
 10
-7830.189083099998
 20
270.4249789210007
 10
-7718.430126039999
 20
271.7307326369992
 10
-7606.671169000001
 20
273.036487581001
 10
-7494.912211980001
 20
274.3422438439993
 10
-7383.15325499
 20
275.6480015250017
 10
-7271.394298039999
 20
276.9537607320017
 10
-7159.635341109999
 20
278.2595215850015
 10
-7047.876384219999
 20
279.5652842189993
 10
-6936.117427370002
 20
280.8710487800017
 10
-6824.358470560001
 20
282.1768154349993
 10
-6712.5995138
 20
283.482584368001
 10
-6600.840557079999
 20
284.788355785
 10
-6489.081600419999
 20
286.0941299190017
 10
-6377.32264382
 20
287.3999070329992
 10
-6265.56368729
 20
288.7056874240006
 10
-6153.80473082
 20
290.0114714310002
 10
-6042.045774440001
 20
291.3172594399985
 10
-5930.286818150002
 20
292.6230518960001
 10
-5818.527861950002
 20
293.9288493109998
 10
-5706.768905860001
 20
295.234652277999
 10
-5595.009949899999
 20
296.5404614910003
 10
-5483.250994080001
 20
297.8462777620007
 10
-5371.492038420001
 20
299.1521020520013
 10
-5259.733082940002
 20
300.4579355050009
 10
-5147.974127670001
 20
301.7637794910006
 10
-5036.215172640001
 20
303.0696356699991
 10
-4924.456217899999
 20
304.3755060689982
 10
-4812.697263490001
 20
305.6813931899997
 10
-4700.93830948
 20
306.987300159999
  0
ENDBLK
  5
17C
330
178
100
AcDbEntity
  8
0
100
AcDbBlockEnd
  0
BLOCK
  5
180
330
17D
100
AcDbEntity
  8
0
100
AcDbBlockBegin
  2
#POLYLINE(40)
 70
     0
 10
0.0
 20
0.0
 30
0.0
  3
#POLYLINE(40)
  1
#POLYLINE(40)
  0
LWPOLYLINE
  5
17E
330
17D
100
AcDbEntity
  8
aux_beam_width
100
AcDbPolyline
 90
       10
 70
     0
 43
0.0
 10
-102.8324601349996
 20
23072.02046980001
 10
-98.73158962589878
 20
20501.1407744
 10
-94.63076439750148
 20
17930.261079
 10
-90.52998350180133
 20
15359.3813834
 10
-86.42924601699997
 20
12788.5016878
 10
-82.32855104669943
 20
10217.6219921
 10
-78.22789771899988
 20
7646.74229627
 10
-74.12728518540098
 20
5075.8626004
 10
-70.0267126204999
 20
2504.982904460001
 10
-65.92617922069985
 20
-65.89679155559861
  0
ENDBLK
  5
181
330
17D
100
AcDbEntity
  8
0
100
AcDbBlockEnd
  0
BLOCK
  5
185
330
182
100
AcDbEntity
  8
0
100
AcDbBlockBegin
  2
#POLYLINE(41)
 70
     0
 10
0.0
 20
0.0
 30
0.0
  3
#POLYLINE(41)
  1
#POLYLINE(41)
  0
LWPOLYLINE
  5
183
330
182
100
AcDbEntity
  8
aux_beam_width
100
AcDbPolyline
 90
       10
 70
     0
 43
0.0
 10
88.1750914250988
 20
23071.937127
 10
93.58946459590152
 20
20523.5935514
 10
99.0038822651004
 20
17975.24997589999
 10
104.4183435090017
 20
15426.9064004
 10
109.8328474299997
 20
12878.5628251
 10
115.2473931540007
 20
10330.2192498
 10
120.6619798300017
 20
7781.87567456
 10
126.0766066309989
 20
5233.532099420001
 10
131.4912727529991
 20
2685.18852435
 10
136.9059774099987
 20
136.8449493469998
  0
ENDBLK
  5
186
330
182
100
AcDbEntity
  8
0
100
AcDbBlockEnd
  0
BLOCK
  5
18A
330
187
100
AcDbEntity
  8
0
100
AcDbBlockBegin
  2
#POLYLINE(42)
 70
     0
 10
0.0
 20
0.0
 30
0.0
  3
#POLYLINE(42)
  1
#POLYLINE(42)
  0
LWPOLYLINE
  5
188
330
187
100
AcDbEntity
  8
aux_beam_width
100
AcDbPolyline
 90
       10
 70
     0
 43
0.0
 10
87.88294083310029
 20
23071.9372545
 10
87.89832984879831
 20
23088.6081968
 10
87.91371886510024
 20
23105.2791391
 10
87.92910788210065
 20
23121.95008139999
 10
87.94449689970133
 20
23138.6210237
 10
87.95988591789865
 20
23155.2919659
 10
87.97527493680172
 20
23171.9629082
 10
87.99066395630143
 20
23188.6338505
 10
88.0060529764014
 20
23205.30479280001
 10
88.02144199719987
 20
23221.9757351
  0
ENDBLK
  5
18B
330
187
100
AcDbEntity
  8
0
100
AcDbBlockEnd
  0
BLOCK
  5
18F
330
18C
100
AcDbEntity
  8
0
100
AcDbBlockBegin
  2
#POLYLINE(43)
 70
     0
 10
0.0
 20
0.0
 30
0.0
  3
#POLYLINE(43)
  1
#POLYLINE(43)
  0
LWPOLYLINE
  5
18D
330
18C
100
AcDbEntity
  8
aux_beam_width
100
AcDbPolyline
 90
       10
 70
     0
 43
0.0
 10
-103.0640507919998
 20
23072.0205709
 10
-103.0503511300012
 20
23088.68225430001
 10
-103.036651467999
 20
23105.3439378
 10
-103.0229518070009
 20
23122.0056212
 10
-103.0092521469996
 20
23138.6673047
 10
-102.9955524869983
 20
23155.3289881
 10
-102.9818528280011
 20
23171.9906716
 10
-102.9681531700007
 20
23188.652355
 10
-102.9544535120003
 20
23205.3140385
 10
-102.9407538550004
 20
23221.9757219
  0
ENDBLK
  5
190
330
18C
100
AcDbEntity
  8
0
100
AcDbBlockEnd
  0
BLOCK
  5
194
330
191
100
AcDbEntity
  8
0
100
AcDbBlockBegin
  2
#POLYLINE(44)
 70
     0
 10
0.0
 20
0.0
 30
0.0
  3
#POLYLINE(44)
  1
#POLYLINE(44)
  0
LWPOLYLINE
  5
192
330
191
100
AcDbEntity
  8
aux_beam_width
100
AcDbPolyline
 90
       10
 70
     0
 43
0.0
 10
-65.90779517359988
 20
-65.87841570350065
 10
-63.13483367440131
 20
-75.64447705720158
 10
-60.3618721751991
 20
-85.41053841089888
 10
-57.58891067620061
 20
-95.17659976470168
 10
-54.81594917739858
 20
-104.9426611179988
 10
-52.04298767869841
 20
-114.7087224720017
 10
-49.27002618019833
 20
-124.4747838260009
 10
-46.49706468180011
 20
-134.2408451800002
 10
-43.72410318350012
 20
-144.0069065339994
 10
-40.95114168540022
 20
-153.7729678879987
  0
ENDBLK
  5
195
330
191
100
AcDbEntity
  8
0
100
AcDbBlockEnd
  0
BLOCK
  5
199
330
196
100
AcDbEntity
  8
0
100
AcDbBlockBegin
  2
#POLYLINE(45)
 70
     0
 10
0.0
 20
0.0
 30
0.0
  3
#POLYLINE(45)
  1
#POLYLINE(45)
  0
LWPOLYLINE
  5
197
330
196
100
AcDbEntity
  8
aux_beam_width
100
AcDbPolyline
 90
       10
 70
     0
 43
0.0
 10
136.9243486720006
 20
136.8633124189982
 10
139.7136626690008
 20
127.0507314640017
 10
142.5029766670013
 20
117.2381505080011
 10
145.2922906640015
 20
107.425569553001
 10
148.0816046619984
 20
97.61298859729868
 10
150.870918659999
 20
87.80040764189835
 10
153.6602326579996
 20
77.98782668659987
 10
156.4495466570006
 20
68.1752457313014
 10
159.2388606550012
 20
58.36266477599929
 10
162.0281746539986
 20
48.55008382079905
  0
ENDBLK
  5
19A
330
196
100
AcDbEntity
  8
0
100
AcDbBlockEnd
  0
BLOCK
  5
19E
330
19B
100
AcDbEntity
  8
0
100
AcDbBlockBegin
  2
#POLYLINE(46)
 70
     0
 10
0.0
 20
0.0
 30
0.0
  3
#POLYLINE(46)
  1
#POLYLINE(46)
  0
LWPOLYLINE
  5
19C
330
19B
100
AcDbEntity
  8
aux_beam_width
100
AcDbPolyline
 90
       10
 70
     0
 43
0.0
 10
-102.9407454799984
 20
23221.9757219
 10
-102.928718127001
 20
23205.3140272
 10
-102.916690774
 20
23188.6523326
 10
-102.9046634219994
 20
23171.9906379
 10
-102.8926360709993
 20
23155.3289432
 10
-102.8806087199991
 20
23138.66724850001
 10
-102.8685813699994
 20
23122.0055539
 10
-102.8565540210002
 20
23105.3438592
 10
-102.8445266720009
 20
23088.68216450001
 10
-102.8324993239985
 20
23072.02046980001
  0
ENDBLK
  5
19F
330
19B
100
AcDbEntity
  8
0
100
AcDbBlockEnd
  0
BLOCK
  5
1A3
330
1A0
100
AcDbEntity
  8
0
100
AcDbBlockBegin
  2
#POLYLINE(47)
 70
     0
 10
0.0
 20
0.0
 30
0.0
  3
#POLYLINE(47)
  1
#POLYLINE(47)
  0
LWPOLYLINE
  5
1A1
330
1A0
100
AcDbEntity
  8
aux_beam_width
100
AcDbPolyline
 90
       10
 70
     0
 43
0.0
 10
88.02145037239825
 20
23221.9757351
 10
88.03851724359993
 20
23205.3047786
 10
88.05558411539823
 20
23188.6338222
 10
88.07265098789867
 20
23171.9628657
 10
88.08971786099937
 20
23155.2919093
 10
88.10678473470034
 20
23138.6209528
 10
88.1238516090998
 20
23121.9499964
 10
88.14091848409953
 20
23105.27904
 10
88.15798535969952
 20
23088.6080835
 10
88.17505223600165
 20
23071.9371271
  0
ENDBLK
  5
1A4
330
1A0
100
AcDbEntity
  8
0
100
AcDbBlockEnd
  0
BLOCK
  5
1A8
330
1A5
100
AcDbEntity
  8
0
100
AcDbBlockBegin
  2
#POLYLINE(48)
 70
     0
 10
0.0
 20
0.0
 30
0.0
  3
#POLYLINE(48)
  1
#POLYLINE(48)
  0
LWPOLYLINE
  5
1A6
330
1A5
100
AcDbEntity
  8
Vacuum
100
AcDbPolyline
 90
        3
 70
     0
 43
0.0
 10
-24622.0239549
 20
406.2977892900017
 10
-24623.5627379
 20
381.3451912950004
 10
-24648.5153359
 20
382.8839743460012
  0
ENDBLK
  5
1A9
330
1A5
100
AcDbEntity
  8
0
100
AcDbBlockEnd
  0
BLOCK
  5
1AD
330
1AA
100
AcDbEntity
  8
0
100
AcDbBlockBegin
  2
#POLYLINE(49)
 70
     0
 10
0.0
 20
0.0
 30
0.0
  3
#POLYLINE(49)
  1
#POLYLINE(49)
  0
LWPOLYLINE
  5
1AB
330
1AA
100
AcDbEntity
  8
Vacuum
100
AcDbPolyline
 90
        3
 70
     0
 43
0.0
 10
-24452.3462885
 20
395.8340645419994
 10
-24453.8850715
 20
370.8814665460013
 10
-24428.9324735
 20
369.3426834950005
  0
ENDBLK
  5
1AE
330
1AA
100
AcDbEntity
  8
0
100
AcDbBlockEnd
  0
BLOCK
  5
1B2
330
1AF
100
AcDbEntity
  8
0
100
AcDbBlockBegin
  2
#POLYLINE(50)
 70
     0
 10
0.0
 20
0.0
 30
0.0
  3
#POLYLINE(50)
  1
#POLYLINE(50)
  0
LWPOLYLINE
  5
1B0
330
1AF
100
AcDbEntity
  8
Vacuum
100
AcDbPolyline
 90
        3
 70
     0
 43
0.0
 10
-24465.8875793
 20
176.2512021820003
 10
-24464.3487963
 20
201.2038001770015
 10
-24439.3961983
 20
199.6650171260007
  0
ENDBLK
  5
1B3
330
1AF
100
AcDbEntity
  8
0
100
AcDbBlockEnd
  0
BLOCK
  5
1B7
330
1B4
100
AcDbEntity
  8
0
100
AcDbBlockBegin
  2
#POLYLINE(51)
 70
     0
 10
0.0
 20
0.0
 30
0.0
  3
#POLYLINE(51)
  1
#POLYLINE(51)
  0
LWPOLYLINE
  5
1B5
330
1B4
100
AcDbEntity
  8
Vacuum
100
AcDbPolyline
 90
        3
 70
     0
 43
0.0
 10
-24635.5652457
 20
186.7149269299989
 10
-24634.0264627
 20
211.6675249260006
 10
-24658.9790607
 20
213.2063079770014
  0
ENDBLK
  5
1B8
330
1B4
100
AcDbEntity
  8
0
100
AcDbBlockEnd
  0
BLOCK
  5
1BC
330
1B9
100
AcDbEntity
  8
0
100
AcDbBlockBegin
  2
#POLYLINE(52)
 70
     0
 10
0.0
 20
0.0
 30
0.0
  3
#POLYLINE(52)
  1
#POLYLINE(52)
  0
LWPOLYLINE
  5
1BA
330
1B9
100
AcDbEntity
  8
Vacuum
100
AcDbPolyline
 90
        5
 70
     0
 43
0.0
 10
-24660.5178437
 20
188.2537099820001
 10
-24440.9349813
 20
174.7124191309995
 10
-24427.3936905
 20
394.2952814900018
 10
-24646.9765529
 20
407.8365723409988
 10
-24660.5178437
 20
188.2537099820001
  0
ENDBLK
  5
1BD
330
1B9
100
AcDbEntity
  8
0
100
AcDbBlockEnd
  0
BLOCK
  5
1C1
330
1BE
100
AcDbEntity
  8
0
100
AcDbBlockBegin
  2
#POLYLINE(53)
 70
     0
 10
0.0
 20
0.0
 30
0.0
  3
#POLYLINE(53)
  1
#POLYLINE(53)
  0
LWPOLYLINE
  5
1BF
330
1BE
100
AcDbEntity
  8
Vacuum
100
AcDbPolyline
 90
        3
 70
     0
 43
0.0
 10
-21252.057896
 20
-179.2709077920008
 10
-21250.2762712
 20
-154.3344723410009
 10
-21225.3398358
 20
-156.1160971479985
  0
ENDBLK
  5
1C2
330
1BE
100
AcDbEntity
  8
0
100
AcDbBlockEnd
  0
BLOCK
  5
1C6
330
1C3
100
AcDbEntity
  8
0
100
AcDbBlockBegin
  2
#POLYLINE(54)
 70
     0
 10
0.0
 20
0.0
 30
0.0
  3
#POLYLINE(54)
  1
#POLYLINE(54)
  0
LWPOLYLINE
  5
1C4
330
1C3
100
AcDbEntity
  8
Vacuum
100
AcDbPolyline
 90
        3
 70
     0
 43
0.0
 10
-21421.6256571
 20
-167.1558590989989
 10
-21419.8440323
 20
-142.2194236469986
 10
-21444.7804678
 20
-140.4377988390006
  0
ENDBLK
  5
1C7
330
1C3
100
AcDbEntity
  8
0
100
AcDbBlockEnd
  0
BLOCK
  5
1CB
330
1C8
100
AcDbEntity
  8
0
100
AcDbBlockBegin
  2
#POLYLINE(55)
 70
     0
 10
0.0
 20
0.0
 30
0.0
  3
#POLYLINE(55)
  1
#POLYLINE(55)
  0
LWPOLYLINE
  5
1C9
330
1C8
100
AcDbEntity
  8
Vacuum
100
AcDbPolyline
 90
        3
 70
     0
 43
0.0
 10
-21405.9473588
 20
52.28477287750138
 10
-21407.7289836
 20
27.34833742570117
 10
-21432.6654191
 20
29.12996223360096
  0
ENDBLK
  5
1CC
330
1C8
100
AcDbEntity
  8
0
100
AcDbBlockEnd
  0
BLOCK
  5
1D0
330
1CD
100
AcDbEntity
  8
0
100
AcDbBlockBegin
  2
#POLYLINE(56)
 70
     0
 10
0.0
 20
0.0
 30
0.0
  3
#POLYLINE(56)
  1
#POLYLINE(56)
  0
LWPOLYLINE
  5
1CE
330
1CD
100
AcDbEntity
  8
Vacuum
100
AcDbPolyline
 90
        3
 70
     0
 43
0.0
 10
-21236.3795977
 20
40.16972418389923
 10
-21238.1612225
 20
15.2332887320008
 10
-21213.2247871
 20
13.45166392410101
  0
ENDBLK
  5
1D1
330
1CD
100
AcDbEntity
  8
0
100
AcDbBlockEnd
  0
BLOCK
  5
1D5
330
1D2
100
AcDbEntity
  8
0
100
AcDbBlockBegin
  2
#POLYLINE(57)
 70
     0
 10
0.0
 20
0.0
 30
0.0
  3
#POLYLINE(57)
  1
#POLYLINE(57)
  0
LWPOLYLINE
  5
1D3
330
1D2
100
AcDbEntity
  8
Vacuum
100
AcDbPolyline
 90
        5
 70
     0
 43
0.0
 10
-21211.4431623
 20
38.38809937599945
 10
-21430.8837943
 20
54.06639768540117
 10
-21446.5620926
 20
-165.3742342910009
 10
-21227.1214606
 20
-181.0525325999988
 10
-21211.4431623
 20
38.38809937599945
  0
ENDBLK
  5
1D6
330
1D2
100
AcDbEntity
  8
0
100
AcDbBlockEnd
  0
BLOCK
  5
1DA
330
1D7
100
AcDbEntity
  8
0
100
AcDbBlockBegin
  2
#POLYLINE(58)
 70
     0
 10
0.0
 20
0.0
 30
0.0
  3
#POLYLINE(58)
  1
#POLYLINE(58)
  0
LWPOLYLINE
  5
1D8
330
1D7
100
AcDbEntity
  8
Vacuum
100
AcDbPolyline
 90
        4
 70
     0
 43
0.0
 10
-24651.3407203
 20
-349.2748171290004
 10
-24686.6960594
 20
-384.6301561879991
 10
-24790.6407562
 20
-280.6854593540011
 10
-24755.2854171
 20
-245.3301202949988
  0
ENDBLK
  5
1DB
330
1D7
100
AcDbEntity
  8
0
100
AcDbBlockEnd
  0
BLOCK
  5
1DF
330
1DC
100
AcDbEntity
  8
0
100
AcDbBlockBegin
  2
#POLYLINE(59)
 70
     0
 10
0.0
 20
0.0
 30
0.0
  3
#POLYLINE(59)
  1
#POLYLINE(59)
  0
LWPOLYLINE
  5
1DD
330
1DC
100
AcDbEntity
  8
Vacuum
100
AcDbPolyline
 90
        4
 70
     0
 43
0.0
 10
-24785.9205552
 20
456.3298992429991
 10
-24824.2227773
 20
488.469279727
 10
-24729.7329987
 20
601.0778128650018
 10
-24691.4307766
 20
568.9384323810009
  0
ENDBLK
  5
1E0
330
1DC
100
AcDbEntity
  8
0
100
AcDbBlockEnd
  0
BLOCK
  5
1E4
330
1E1
100
AcDbEntity
  8
0
100
AcDbBlockBegin
  2
#POLYLINE(60)
 70
     0
 10
0.0
 20
0.0
 30
0.0
  3
#POLYLINE(60)
  1
#POLYLINE(60)
  0
LWPOLYLINE
  5
1E2
330
1E1
100
AcDbEntity
  8
Vacuum
100
AcDbPolyline
 90
        4
 70
     0
 43
0.0
 10
-23902.0813793
 20
-342.5012983589986
 10
-23874.1217341
 20
-383.9531769870009
 10
-23957.0254914
 20
-439.8724673340002
 10
-23984.9851365
 20
-398.4205887069984
  0
ENDBLK
  5
1E5
330
1E1
100
AcDbEntity
  8
0
100
AcDbBlockEnd
  0
BLOCK
  5
1E9
330
1E6
100
AcDbEntity
  8
0
100
AcDbBlockBegin
  2
#POLYLINE(61)
 70
     0
 10
0.0
 20
0.0
 30
0.0
  3
#POLYLINE(61)
  1
#POLYLINE(61)
  0
LWPOLYLINE
  5
1E7
330
1E6
100
AcDbEntity
  8
Vacuum
100
AcDbPolyline
 90
        4
 70
     0
 43
0.0
 10
-24110.7072516
 20
705.0282533760001
 10
-24092.7888541
 20
751.7072746999984
 10
-23999.4308115
 20
715.8704797460014
 10
-24017.3492089
 20
669.191458420999
  0
ENDBLK
  5
1EA
330
1E6
100
AcDbEntity
  8
0
100
AcDbBlockEnd
  0
BLOCK
  5
1EE
330
1EB
100
AcDbEntity
  8
0
100
AcDbBlockBegin
  2
#POLYLINE(62)
 70
     0
 10
0.0
 20
0.0
 30
0.0
  3
#POLYLINE(62)
  1
#POLYLINE(62)
  0
LWPOLYLINE
  5
1EC
330
1EB
100
AcDbEntity
  8
Vacuum
100
AcDbPolyline
 90
        4
 70
     0
 43
0.0
 10
-21287.1026131
 20
647.7175692070014
 10
-21256.6645417
 20
687.3852362209982
 10
-21140.0416006
 20
597.8973061569995
 10
-21170.4796721
 20
558.2296391429991
  0
ENDBLK
  5
1EF
330
1EB
100
AcDbEntity
  8
0
100
AcDbBlockEnd
  0
BLOCK
  5
1F3
330
1F0
100
AcDbEntity
  8
0
100
AcDbBlockBegin
  2
#POLYLINE(63)
 70
     0
 10
0.0
 20
0.0
 30
0.0
  3
#POLYLINE(63)
  1
#POLYLINE(63)
  0
LWPOLYLINE
  5
1F1
330
1F0
100
AcDbEntity
  8
Vacuum
100
AcDbPolyline
 90
        4
 70
     0
 43
0.0
 10
-21731.9053708
 20
-459.1231594960009
 10
-21747.3562205
 20
-506.6759853110016
 10
-21842.4618722
 20
-475.7742858730016
 10
-21827.0110224
 20
-428.221460058001
  0
ENDBLK
  5
1F4
330
1F0
100
AcDbEntity
  8
0
100
AcDbBlockEnd
  0
BLOCK
  5
1F8
330
1F5
100
AcDbEntity
  8
0
100
AcDbBlockBegin
  2
#POLYLINE(64)
 70
     0
 10
0.0
 20
0.0
 30
0.0
  3
#POLYLINE(64)
  1
#POLYLINE(64)
  0
LWPOLYLINE
  5
1F6
330
1F5
100
AcDbEntity
  8
Vacuum
100
AcDbPolyline
 90
        4
 70
     0
 43
0.0
 10
-21954.4019633
 20
609.294494482001
 10
-21980.8979266
 20
651.6968992900001
 10
-21896.0931169
 20
704.6888257130013
 10
-21869.5971537
 20
662.286420905999
  0
ENDBLK
  5
1F9
330
1F5
100
AcDbEntity
  8
0
100
AcDbBlockEnd
  0
BLOCK
  5
1FD
330
1FA
100
AcDbEntity
  8
0
100
AcDbBlockBegin
  2
#POLYLINE(65)
 70
     0
 10
0.0
 20
0.0
 30
0.0
  3
#POLYLINE(65)
  1
#POLYLINE(65)
  0
LWPOLYLINE
  5
1FB
330
1FA
100
AcDbEntity
  8
Vacuum
100
AcDbPolyline
 90
        4
 70
     0
 43
0.0
 10
-21010.4584469
 20
-21.10336389430086
 10
-20963.1825181
 20
-37.38177161720159
 10
-20995.7393336
 20
-131.9336291770014
 10
-21043.0152624
 20
-115.6552214539988
  0
ENDBLK
  5
1FE
330
1FA
100
AcDbEntity
  8
0
100
AcDbBlockEnd
  0
BLOCK
  5
20A
330
207
100
AcDbEntity
  8
0
100
AcDbBlockBegin
  2
#POLYLINE(66)
 70
     0
 10
0.0
 20
0.0
 30
0.0
  3
#POLYLINE(66)
  1
#POLYLINE(66)
  0
LWPOLYLINE
  5
208
330
207
100
AcDbEntity
  8
Vacuum
100
AcDbPolyline
 90
        5
 70
     0
 43
0.0
 10
-400.0905570729992
 20
24496.9789127
 10
384.9094429270008
 20
24496.9789127
 10
384.9094429270008
 20
21796.9789127
 10
-400.0905570729992
 20
21796.9789127
 10
-400.0905570729992
 20
24496.9789127
  0
ENDBLK
  5
20B
330
207
100
AcDbEntity
  8
0
100
AcDbBlockEnd
  0
BLOCK
  5
210
330
20D
100
AcDbEntity
  8
0
100
AcDbBlockBegin
  2
#POLYLINE(67)
 70
     0
 10
0.0
 20
0.0
 30
0.0
  3
#POLYLINE(67)
  1
#POLYLINE(67)
  0
LWPOLYLINE
  5
20E
330
20D
100
AcDbEntity
  8
Vacuum
100
AcDbPolyline
 90
        5
 70
     0
 43
0.0
 10
25082.1160223
 20
376.1192715090001
 10
27782.1160223
 20
376.1192715090001
 10
27782.1160223
 20
-408.8807284909999
 10
25082.1160223
 20
-408.8807284909999
 10
25082.1160223
 20
376.1192715090001
  0
ENDBLK
  5
211
330
20D
100
AcDbEntity
  8
0
100
AcDbBlockEnd
  0
BLOCK
  5
21C
330
219
100
AcDbEntity
  8
0
100
AcDbBlockBegin
  2
#POLYLINE(68)
 70
     0
 10
0.0
 20
0.0
 30
0.0
  3
#POLYLINE(68)
  1
#POLYLINE(68)
  0
LWPOLYLINE
  5
21A
330
219
100
AcDbEntity
  8
Vacuum
100
AcDbPolyline
 90
        5
 70
     0
 43
0.0
 10
-345.7852841610002
 20
-14893.6344271
 10
439.2147158389998
 20
-14893.6344271
 10
439.2147158389998
 20
-16593.6344271
 10
-345.7852841610002
 20
-16593.6344271
 10
-345.7852841610002
 20
-14893.6344271
  0
ENDBLK
  5
21D
330
219
100
AcDbEntity
  8
0
100
AcDbBlockEnd
  0
BLOCK
  5
222
330
21F
100
AcDbEntity
  8
0
100
AcDbBlockBegin
  2
#POLYLINE(69)
 70
     0
 10
0.0
 20
0.0
 30
0.0
  3
#POLYLINE(69)
  1
#POLYLINE(69)
  0
LWPOLYLINE
  5
220
330
21F
100
AcDbEntity
  8
Vacuum
100
AcDbPolyline
 90
        5
 70
     0
 43
0.0
 10
-254.3591410469999
 20
-3682.651813839999
 10
530.6408589530001
 20
-3682.651813839999
 10
530.6408589530001
 20
-5382.651813839999
 10
-254.3591410469999
 20
-5382.651813839999
 10
-254.3591410469999
 20
-3682.651813839999
  0
ENDBLK
  5
223
330
21F
100
AcDbEntity
  8
0
100
AcDbBlockEnd
  0
BLOCK
  5
228
330
225
100
AcDbEntity
  8
0
100
AcDbBlockBegin
  2
#POLYLINE(70)
 70
     0
 10
0.0
 20
0.0
 30
0.0
  3
#POLYLINE(70)
  1
#POLYLINE(70)
  0
LWPOLYLINE
  5
226
330
225
100
AcDbEntity
  8
Vacuum
100
AcDbPolyline
 90
        5
 70
     0
 43
0.0
 10
-127.3288548009987
 20
-18526.4355913
 10
657.6711451990013
 20
-18526.4355913
 10
657.6711451990013
 20
-20226.4355913
 10
-127.3288548009987
 20
-20226.4355913
 10
-127.3288548009987
 20
-18526.4355913
  0
ENDBLK
  5
229
330
225
100
AcDbEntity
  8
0
100
AcDbBlockEnd
  0
BLOCK
  5
230
330
22D
100
AcDbEntity
  8
0
100
AcDbBlockBegin
  2
#POLYLINE(71)
 70
     0
 10
0.0
 20
0.0
 30
0.0
  3
#POLYLINE(71)
  1
#POLYLINE(71)
  0
LWPOLYLINE
  5
22E
330
22D
100
AcDbEntity
  8
Vacuum
100
AcDbPolyline
 90
        5
 70
     0
 43
0.0
 10
-364.2220349470008
 20
821.7094239639991
 10
420.7779650529992
 20
821.7094239639991
 10
420.7779650529992
 20
-878.2905760360009
 10
-364.2220349470008
 20
-878.2905760360009
 10
-364.2220349470008
 20
821.7094239639991
  0
ENDBLK
  5
231
330
22D
100
AcDbEntity
  8
0
100
AcDbBlockEnd
  0
BLOCK
  5
235
330
232
100
AcDbEntity
  8
0
100
AcDbBlockBegin
  2
#POLYLINE(72)
 70
     0
 10
0.0
 20
0.0
 30
0.0
  3
#POLYLINE(72)
  1
#POLYLINE(72)
  0
LWPOLYLINE
  5
233
330
232
100
AcDbEntity
  8
Vacuum
100
AcDbPolyline
 90
        5
 70
     0
 43
0.0
 10
-821.7220349470008
 20
364.2094239639991
 10
878.2779650529992
 20
364.2094239639991
 10
878.2779650529992
 20
-420.7905760360009
 10
-821.7220349470008
 20
-420.7905760360009
 10
-821.7220349470008
 20
364.2094239639991
  0
ENDBLK
  5
236
330
232
100
AcDbEntity
  8
0
100
AcDbBlockEnd
  0
BLOCK
  5
23F
330
23C
100
AcDbEntity
  8
0
100
AcDbBlockBegin
  2
#POLYLINE(73)
 70
     0
 10
0.0
 20
0.0
 30
0.0
  3
#POLYLINE(73)
  1
#POLYLINE(73)
  0
LWPOLYLINE
  5
23D
330
23C
100
AcDbEntity
  8
Vacuum
100
AcDbPolyline
 90
        5
 70
     0
 43
0.0
 10
-16663.4545987
 20
564.1583013089985
 10
-14963.4545987
 20
564.1583013089985
 10
-14963.4545987
 20
-220.8416986910015
 10
-16663.4545987
 20
-220.8416986910015
 10
-16663.4545987
 20
564.1583013089985
  0
ENDBLK
  5
240
330
23C
100
AcDbEntity
  8
0
100
AcDbBlockEnd
  0
BLOCK
  5
245
330
242
100
AcDbEntity
  8
0
100
AcDbBlockBegin
  2
#POLYLINE(74)
 70
     0
 10
0.0
 20
0.0
 30
0.0
  3
#POLYLINE(74)
  1
#POLYLINE(74)
  0
LWPOLYLINE
  5
243
330
242
100
AcDbEntity
  8
Vacuum
100
AcDbPolyline
 90
        5
 70
     0
 43
0.0
 10
-5498.142475619999
 20
501.8045506679991
 10
-3798.142475619999
 20
501.8045506679991
 10
-3798.142475619999
 20
-283.1954493320009
 10
-5498.142475619999
 20
-283.1954493320009
 10
-5498.142475619999
 20
501.8045506679991
  0
ENDBLK
  5
246
330
242
100
AcDbEntity
  8
0
100
AcDbBlockEnd
  0
BLOCK
  5
24B
330
248
100
AcDbEntity
  8
0
100
AcDbBlockBegin
  2
#POLYLINE(75)
 70
     0
 10
0.0
 20
0.0
 30
0.0
  3
#POLYLINE(75)
  1
#POLYLINE(75)
  0
LWPOLYLINE
  5
249
330
248
100
AcDbEntity
  8
Vacuum
100
AcDbPolyline
 90
        5
 70
     0
 43
0.0
 10
-20362.0901964
 20
619.0749993790014
 10
-18662.0901964
 20
619.0749993790014
 10
-18662.0901964
 20
-165.9250006209986
 10
-20362.0901964
 20
-165.9250006209986
 10
-20362.0901964
 20
619.0749993790014
  0
ENDBLK
  5
24C
330
248
100
AcDbEntity
  8
0
100
AcDbBlockEnd
  0
BLOCK
  5
251
330
24E
100
AcDbEntity
  8
0
100
AcDbBlockBegin
  2
#POLYLINE(76)
 70
     0
 10
0.0
 20
0.0
 30
0.0
  3
#POLYLINE(76)
  1
#POLYLINE(76)
  0
LWPOLYLINE
  5
24F
330
24E
100
AcDbEntity
  8
main_beam_width
100
AcDbPolyline
 90
       10
 70
     0
 43
0.0
 10
253.4406110939999
 20
-19426.8158737
 10
253.242620396999
 20
-19437.8579521
 10
253.0446292250017
 20
-19448.9000304
 10
252.8466375790013
 20
-19459.9421088
 10
252.6486454580008
 20
-19470.9841872
 10
252.4506528620004
 20
-19482.0262655
 10
252.2526597920005
 20
-19493.0683438
 10
252.054666248001
 20
-19504.1104222
 10
251.8566722290016
 20
-19515.1525005
 10
251.6586777359989
 20
-19526.1945788
  0
ENDBLK
  5
252
330
24E
100
AcDbEntity
  8
0
100
AcDbBlockEnd
  0
BLOCK
  5
256
330
253
100
AcDbEntity
  8
0
100
AcDbBlockBegin
  2
#POLYLINE(77)
 70
     0
 10
0.0
 20
0.0
 30
0.0
  3
#POLYLINE(77)
  1
#POLYLINE(77)
  0
LWPOLYLINE
  5
254
330
253
100
AcDbEntity
  8
main_beam_width
100
AcDbPolyline
 90
       10
 70
     0
 43
0.0
 10
276.6831311099995
 20
-19426.0550715
 10
276.483596823
 20
-19437.2278691
 10
276.2840630220016
 20
-19448.4006666
 10
276.0845297070009
 20
-19459.5734642
 10
275.884996877001
 20
-19470.7462618
 10
275.685464533999
 20
-19481.9190594
 10
275.4859326760015
 20
-19493.091857
 10
275.2864013040016
 20
-19504.2646546
 10
275.0868704169989
 20
-19515.4374522
 10
274.8873400170014
 20
-19526.6102499
  0
ENDBLK
  5
257
330
253
100
AcDbEntity
  8
0
100
AcDbBlockEnd
  0
BLOCK
  5
25B
330
258
100
AcDbEntity
  8
0
100
AcDbBlockBegin
  2
#POLYLINE(78)
 70
     0
 10
0.0
 20
0.0
 30
0.0
  3
#POLYLINE(78)
  1
#POLYLINE(78)
  0
LWPOLYLINE
  5
259
330
258
100
AcDbEntity
  8
main_beam_width
100
AcDbPolyline
 90
       10
 70
     0
 43
0.0
 10
253.4406110939999
 20
-19426.8158737
 10
253.242620396999
 20
-19437.8579521
 10
253.0446292250017
 20
-19448.9000304
 10
252.8466375790013
 20
-19459.9421088
 10
252.6486454580008
 20
-19470.9841872
 10
252.4506528630009
 20
-19482.0262655
 10
252.2526597930009
 20
-19493.0683438
 10
252.0546662490015
 20
-19504.1104222
 10
251.8566722299984
 20
-19515.1525005
 10
251.6586777369994
 20
-19526.1945788
  0
ENDBLK
  5
25C
330
258
100
AcDbEntity
  8
0
100
AcDbBlockEnd
  0
BLOCK
  5
260
330
25D
100
AcDbEntity
  8
0
100
AcDbBlockBegin
  2
#POLYLINE(79)
 70
     0
 10
0.0
 20
0.0
 30
0.0
  3
#POLYLINE(79)
  1
#POLYLINE(79)
  0
LWPOLYLINE
  5
25E
330
25D
100
AcDbEntity
  8
main_beam_width
100
AcDbPolyline
 90
       10
 70
     0
 43
0.0
 10
276.6831311099995
 20
-19426.0550715
 10
276.483596823
 20
-19437.2278691
 10
276.2840630220016
 20
-19448.4006666
 10
276.0845297070009
 20
-19459.5734642
 10
275.8849968780014
 20
-19470.7462618
 10
275.685464533999
 20
-19481.9190594
 10
275.4859326760015
 20
-19493.091857
 10
275.2864013040016
 20
-19504.2646546
 10
275.0868704179993
 20
-19515.4374522
 10
274.8873400170014
 20
-19526.6102499
  0
ENDBLK
  5
261
330
25D
100
AcDbEntity
  8
0
100
AcDbBlockEnd
  0
BLOCK
  5
265
330
262
100
AcDbEntity
  8
0
100
AcDbBlockBegin
  2
#POLYLINE(80)
 70
     0
 10
0.0
 20
0.0
 30
0.0
  3
#POLYLINE(80)
  1
#POLYLINE(80)
  0
LWPOLYLINE
  5
263
330
262
100
AcDbEntity
  8
main_beam_width
100
AcDbPolyline
 90
       10
 70
     0
 43
0.0
 10
-9.485284759950446
 20
-122.4088451159987
 10
2920.13247615
 20
-121.1849530330001
 10
5849.750237079999
 20
-119.9611181100008
 10
8779.367998020003
 20
-118.7373408079984
 10
11708.985759
 20
-117.5136215950006
 10
14638.60352
 20
-116.2899609410015
 10
17568.221281
 20
-115.0663593239988
 10
20497.839042
 20
-113.8428172239983
 10
23427.456803
 20
-112.6193351289985
 10
26357.0745641
 20
-111.3959135309997
  0
ENDBLK
  5
266
330
262
100
AcDbEntity
  8
0
100
AcDbBlockEnd
  0
BLOCK
  5
26A
330
267
100
AcDbEntity
  8
0
100
AcDbBlockBegin
  2
#POLYLINE(81)
 70
     0
 10
0.0
 20
0.0
 30
0.0
  3
#POLYLINE(81)
  1
#POLYLINE(81)
  0
LWPOLYLINE
  5
268
330
267
100
AcDbEntity
  8
main_beam_width
100
AcDbPolyline
 90
       10
 70
     0
 43
0.0
 10
185.9006511970001
 20
72.34537682509836
 10
3093.818076750002
 20
73.0439323747014
 10
6001.735502290001
 20
73.74254426739935
 10
8909.652927800002
 20
74.44121295509831
 10
11817.5703533
 20
75.1399388942009
 10
14725.4877788
 20
75.83872254590096
 10
17633.4052042
 20
76.53756437659831
 10
20541.3226297
 20
77.23646485720019
 10
23449.2400551
 20
77.93542446389984
 10
26357.1574805
 20
78.63444367780176
  0
ENDBLK
  5
26B
330
267
100
AcDbEntity
  8
0
100
AcDbBlockEnd
  0
BLOCK
  5
26F
330
26C
100
AcDbEntity
  8
0
100
AcDbBlockBegin
  2
#POLYLINE(82)
 70
     0
 10
0.0
 20
0.0
 30
0.0
  3
#POLYLINE(82)
  1
#POLYLINE(82)
  0
LWPOLYLINE
  5
26D
330
26C
100
AcDbEntity
  8
main_beam_width
100
AcDbPolyline
 90
       10
 70
     0
 43
0.0
 10
26357.1574805
 20
78.63444367780176
 10
23449.2400551
 20
77.93542446389984
 10
20541.3226297
 20
77.23646485720019
 10
17633.4052042
 20
76.53756437659831
 10
14725.4877788
 20
75.83872254599919
 10
11817.5703533
 20
75.1399388942009
 10
8909.652927800002
 20
74.44121295509831
 10
6001.735502290001
 20
73.74254426750122
 10
3093.818076750002
 20
73.0439323747014
 10
185.9006511970001
 20
72.34537682509836
  0
ENDBLK
  5
270
330
26C
100
AcDbEntity
  8
0
100
AcDbBlockEnd
  0
BLOCK
  5
274
330
271
100
AcDbEntity
  8
0
100
AcDbBlockBegin
  2
#POLYLINE(83)
 70
     0
 10
0.0
 20
0.0
 30
0.0
  3
#POLYLINE(83)
  1
#POLYLINE(83)
  0
LWPOLYLINE
  5
272
330
271
100
AcDbEntity
  8
main_beam_width
100
AcDbPolyline
 90
       10
 70
     0
 43
0.0
 10
26357.0745641
 20
-111.3959135309997
 10
23427.456803
 20
-112.6193351289985
 10
20497.839042
 20
-113.8428172239983
 10
17568.221281
 20
-115.0663593239988
 10
14638.60352
 20
-116.2899609410015
 10
11708.985759
 20
-117.5136215950006
 10
8779.367998020003
 20
-118.7373408079984
 10
5849.750237079999
 20
-119.9611181100008
 10
2920.13247615
 20
-121.1849530330001
 10
-9.485284759950446
 20
-122.4088451159987
  0
ENDBLK
  5
275
330
271
100
AcDbEntity
  8
0
100
AcDbBlockEnd
  0
BLOCK
  5
279
330
276
100
AcDbEntity
  8
0
100
AcDbBlockBegin
  2
#POLYLINE(84)
 70
     0
 10
0.0
 20
0.0
 30
0.0
  3
#POLYLINE(84)
  1
#POLYLINE(84)
  0
LWPOLYLINE
  5
277
330
276
100
AcDbEntity
  8
main_beam_width
100
AcDbPolyline
 90
       10
 70
     0
 43
0.0
 10
-15762.4670906
 20
-86.70058715009873
 10
-14021.9144215
 20
-87.89484543940125
 10
-12281.3617523
 20
-89.08912290100125
 10
-10540.8090832
 20
-90.28341962500053
 10
-8800.256414080002
 20
-91.4777357021012
 10
-7059.703744980001
 20
-92.67207122390028
 10
-5319.15107589
 20
-93.86642628199843
 10
-3578.598406820001
 20
-95.06080096900041
 10
-1838.04573776
 20
-96.25519537799846
 10
-97.49306872119996
 20
-97.44960960240132
  0
ENDBLK
  5
27A
330
276
100
AcDbEntity
  8
0
100
AcDbBlockEnd
  0
BLOCK
  5
27E
330
27B
100
AcDbEntity
  8
0
100
AcDbBlockBegin
  2
#POLYLINE(85)
 70
     0
 10
0.0
 20
0.0
 30
0.0
  3
#POLYLINE(85)
  1
#POLYLINE(85)
  0
LWPOLYLINE
  5
27C
330
27B
100
AcDbEntity
  8
main_beam_width
100
AcDbPolyline
 90
       10
 70
     0
 43
0.0
 10
-15764.6826794
 20
111.1299365740015
 10
-14002.2206253
 20
109.6079037540003
 10
-12239.7585712
 20
108.0858905919995
 10
-10477.296517
 20
106.5638971830012
 10
-8714.83446283
 20
105.041923621
 10
-6952.37240864
 20
103.5199700010016
 10
-5189.910354430001
 20
101.998036418001
 10
-3427.448300209999
 20
100.4761229680007
 10
-1664.986245970002
 20
98.95422974829853
 10
97.47580827999991
 20
97.4323568553009
  0
ENDBLK
  5
27F
330
27B
100
AcDbEntity
  8
0
100
AcDbBlockEnd
  0
BLOCK
  5
283
330
280
100
AcDbEntity
  8
0
100
AcDbBlockBegin
  2
#POLYLINE(86)
 70
     0
 10
0.0
 20
0.0
 30
0.0
  3
#POLYLINE(86)
  1
#POLYLINE(86)
  0
LWPOLYLINE
  5
281
330
280
100
AcDbEntity
  8
main_beam_width
100
AcDbPolyline
 90
       10
 70
     0
 43
0.0
 10
97.47580827999991
 20
97.4323568553009
 10
96.40975915289891
 20
2650.155123200002
 10
95.34375317320155
 20
5202.877889569998
 10
94.27779064339848
 20
7755.600655949998
 10
93.2118718685997
 20
10308.3234223
 10
92.14599715660006
 20
12861.0461887
 10
91.08016681830122
 20
15413.7689552
 10
90.0143811673006
 20
17966.4917216
 10
88.9486405200987
 20
20519.2144881
 10
87.88294519629926
 20
23071.9372545
  0
ENDBLK
  5
284
330
280
100
AcDbEntity
  8
0
100
AcDbBlockEnd
  0
BLOCK
  5
288
330
285
100
AcDbEntity
  8
0
100
AcDbBlockBegin
  2
#POLYLINE(87)
 70
     0
 10
0.0
 20
0.0
 30
0.0
  3
#POLYLINE(87)
  1
#POLYLINE(87)
  0
LWPOLYLINE
  5
286
330
285
100
AcDbEntity
  8
main_beam_width
100
AcDbPolyline
 90
       10
 70
     0
 43
0.0
 10
-97.49306872119996
 20
-97.44960960240132
 10
-98.11188786229832
 20
2476.935966059998
 10
-98.7307508656013
 20
5051.321541720001
 10
-99.34965804090098
 20
7625.707117350001
 10
-99.96860970120179
 20
10200.092693
 10
-100.5876061620002
 20
12774.4782686
 10
-101.2066477420012
 20
15348.8638442
 10
-101.8257347629988
 20
17923.24941979999
 10
-102.4448675489984
 20
20497.6349953
 10
-103.0640464280004
 20
23072.0205709
  0
ENDBLK
  5
289
330
285
100
AcDbEntity
  8
0
100
AcDbBlockEnd
  0
BLOCK
  5
28D
330
28A
100
AcDbEntity
  8
0
100
AcDbBlockBegin
  2
#POLYLINE(88)
 70
     0
 10
0.0
 20
0.0
 30
0.0
  3
#POLYLINE(88)
  1
#POLYLINE(88)
  0
LWPOLYLINE
  5
28B
330
28A
100
AcDbEntity
  8
main_beam_width
100
AcDbPolyline
 90
       10
 70
     0
 43
0.0
 10
-72.61190499129953
 20
-185.3313668769988
 10
-70.30288679110163
 20
-1908.37329815
 10
-67.99388790960074
 20
-3631.415229449998
 10
-65.68490825660047
 20
-5354.457160779999
 10
-63.3759477427011
 20
-7077.49909214
 10
-61.0670062788995
 20
-8800.54102352
 10
-58.75808377689827
 20
-10523.5829549
 10
-56.44918014889845
 20
-12246.6248864
 10
-54.14029530730113
 20
-13969.6668178
 10
-51.83142916550059
 20
-15692.7087493
  0
ENDBLK
  5
28E
330
28A
100
AcDbEntity
  8
0
100
AcDbBlockEnd
  0
BLOCK
  5
292
330
28F
100
AcDbEntity
  8
0
100
AcDbBlockBegin
  2
#POLYLINE(89)
 70
     0
 10
0.0
 20
0.0
 30
0.0
  3
#POLYLINE(89)
  1
#POLYLINE(89)
  0
LWPOLYLINE
  5
290
330
28F
100
AcDbEntity
  8
main_beam_width
100
AcDbPolyline
 90
       10
 70
     0
 43
0.0
 10
122.4843409040004
 20
9.134101617550186
 10
125.1314063550017
 20
-1735.7473264
 10
127.7784916269993
 20
-3480.628754400001
 10
130.4255966259989
 20
-5225.51018236
 10
133.0727212589991
 20
-6970.391610300001
 10
135.7198654339991
 20
-8715.27303821
 10
138.3670290580012
 20
-10460.1544661
 10
141.0142120419987
 20
-12205.0358939
 10
143.6614142930011
 20
-13949.9173218
 10
146.3086357220018
 20
-15694.7987496
  0
ENDBLK
  5
293
330
28F
100
AcDbEntity
  8
0
100
AcDbBlockEnd
  0
BLOCK
  5
297
330
294
100
AcDbEntity
  8
0
100
AcDbBlockBegin
  2
#POLYLINE(90)
 70
     0
 10
0.0
 20
0.0
 30
0.0
  3
#POLYLINE(90)
  1
#POLYLINE(90)
  0
LWPOLYLINE
  5
295
330
294
100
AcDbEntity
  8
main_beam_width
100
AcDbPolyline
 90
       10
 70
     0
 43
0.0
 10
185.9066464429998
 20
72.35135268700105
 10
176.0816569929993
 20
75.13878986809868
 10
166.2566675419985
 20
77.92622704940004
 10
156.4316780920017
 20
80.71366423090149
 10
146.6066886420012
 20
83.50110141250116
 10
136.7816991920008
 20
86.28853859430092
 10
126.9567097420004
 20
89.07597577630077
 10
117.131720292
 20
91.86341295839884
 10
107.3067308419995
 20
94.65085014070064
 10
97.48174139259936
 20
97.43828732319889
  0
ENDBLK
  5
298
330
294
100
AcDbEntity
  8
0
100
AcDbBlockEnd
  0
BLOCK
  5
29C
330
299
100
AcDbEntity
  8
0
100
AcDbBlockBegin
  2
#POLYLINE(91)
 70
     0
 10
0.0
 20
0.0
 30
0.0
  3
#POLYLINE(91)
  1
#POLYLINE(91)
  0
LWPOLYLINE
  5
29A
330
299
100
AcDbEntity
  8
main_beam_width
100
AcDbPolyline
 90
       10
 70
     0
 43
0.0
 10
-9.479288055739744
 20
-122.4028677999995
 10
-19.25793762419926
 20
-119.6296244549994
 10
-29.03658719269879
 20
-116.8563811099993
 10
-38.81523676119832
 20
-114.0831377649993
 10
-48.59388632979972
 20
-111.3098944209996
 10
-58.37253589840111
 20
-108.5366510759995
 10
-68.15118546710073
 20
-105.7634077319999
 10
-77.92983503580035
 20
-102.9901643880003
 10
-87.7084846045982
 20
-100.2169210440006
 10
-97.48713417339968
 20
-97.44367770000099
  0
ENDBLK
  5
29D
330
299
100
AcDbEntity
  8
0
100
AcDbBlockEnd
  0
BLOCK
  5
2A1
330
29E
100
AcDbEntity
  8
0
100
AcDbBlockBegin
  2
#POLYLINE(92)
 70
     0
 10
0.0
 20
0.0
 30
0.0
  3
#POLYLINE(92)
  1
#POLYLINE(92)
  0
LWPOLYLINE
  5
29F
330
29E
100
AcDbEntity
  8
main_beam_width
100
AcDbPolyline
 90
       10
 70
     0
 43
0.0
 10
-97.48713417339968
 20
-97.44367770000099
 10
-94.72256541840034
 20
-107.2083242119988
 10
-91.95799666340099
 20
-116.9729707240003
 10
-89.19342790869996
 20
-126.7376172369986
 10
-86.42885915410079
 20
-136.5022637490001
 10
-83.66429039970171
 20
-146.2669102610016
 10
-80.89972164549908
 20
-156.0315567739999
 10
-78.13515289139832
 20
-165.7962032860014
 10
-75.37058413750128
 20
-175.5608497989997
 10
-72.60601538369883
 20
-185.3254963110012
  0
ENDBLK
  5
2A2
330
29E
100
AcDbEntity
  8
0
100
AcDbBlockEnd
  0
BLOCK
  5
2A6
330
2A3
100
AcDbEntity
  8
0
100
AcDbBlockBegin
  2
#POLYLINE(93)
 70
     0
 10
0.0
 20
0.0
 30
0.0
  3
#POLYLINE(93)
  1
#POLYLINE(93)
  0
LWPOLYLINE
  5
2A4
330
2A3
100
AcDbEntity
  8
main_beam_width
100
AcDbPolyline
 90
       10
 70
     0
 43
0.0
 10
97.48174139259936
 20
97.43828732319889
 10
100.2604622479994
 20
87.62736326170125
 10
103.0391831029992
 20
77.81643920029819
 10
105.8179039589995
 20
68.00551513900064
 10
108.5966248149998
 20
58.19459107760122
 10
111.3753456710001
 20
48.38366701639825
 10
114.1540665270004
 20
38.57274295519892
 10
116.9327873830007
 20
28.76181889399959
 10
119.7115082400014
 20
18.95089483289848
 10
122.4902290960017
 20
9.139970771790104
  0
ENDBLK
  5
2A7
330
2A3
100
AcDbEntity
  8
0
100
AcDbBlockEnd
  0
BLOCK
  5
2AB
330
2A8
100
AcDbEntity
  8
0
100
AcDbBlockBegin
  2
#POLYLINE(94)
 70
     0
 10
0.0
 20
0.0
 30
0.0
  3
#POLYLINE(94)
  1
#POLYLINE(94)
  0
LWPOLYLINE
  5
2A9
330
2A8
100
AcDbEntity
  8
main_beam_width
100
AcDbPolyline
 90
       10
 70
     0
 43
0.0
 10
-20561.5512415
 20
227.227848683
 10
-20450.4494969
 20
225.8026265629996
 10
-20339.347753
 20
224.3773615669998
 10
-20228.2460095
 20
222.9520536470009
 10
-20117.1442667
 20
221.5267027519985
 10
-20006.0425244
 20
220.1013088360014
 10
-19894.9407826
 20
218.6758718499987
 10
-19783.8390414
 20
217.2503917469985
 10
-19672.7373008
 20
215.8248684799983
 10
-19561.6355607
 20
214.3993020029993
  0
ENDBLK
  5
2AC
330
2A8
100
AcDbEntity
  8
0
100
AcDbBlockEnd
  0
BLOCK
  5
2B0
330
2AD
100
AcDbEntity
  8
0
100
AcDbBlockBegin
  2
#POLYLINE(95)
 70
     0
 10
0.0
 20
0.0
 30
0.0
  3
#POLYLINE(95)
  1
#POLYLINE(95)
  0
LWPOLYLINE
  5
2AE
330
2AD
100
AcDbEntity
  8
main_beam_width
100
AcDbPolyline
 90
       10
 70
     0
 43
0.0
 10
-20562.4631413
 20
251.3756352419987
 10
-20451.3610646
 20
249.9411557349995
 10
-20340.2589873
 20
248.5067191050002
 10
-20229.1569095
 20
247.072325399
 10
-20118.0548311
 20
245.6379746669991
 10
-20006.9527522
 20
244.2036669560002
 10
-19895.8506728
 20
242.7694023149998
 10
-19784.7485927
 20
241.3351807910003
 10
-19673.6465122
 20
239.9010024300005
 10
-19562.544431
 20
238.4668672799999
  0
ENDBLK
  5
2B1
330
2AD
100
AcDbEntity
  8
0
100
AcDbBlockEnd
  0
BLOCK
  5
2B5
330
2B2
100
AcDbEntity
  8
0
100
AcDbBlockBegin
  2
#POLYLINE(96)
 70
     0
 10
0.0
 20
0.0
 30
0.0
  3
#POLYLINE(96)
  1
#POLYLINE(96)
  0
LWPOLYLINE
  5
2B3
330
2B2
100
AcDbEntity
  8
main_beam_width
100
AcDbPolyline
 90
       10
 70
     0
 43
0.0
 10
-97.48713417350154
 20
-97.44367770009922
 10
-94.72256541840034
 20
-107.2083242119988
 10
-91.95799666349922
 20
-116.9729707240003
 10
-89.19342790869996
 20
-126.7376172369986
 10
-86.42885915419902
 20
-136.5022637490001
 10
-83.66429039970171
 20
-146.2669102610016
 10
-80.89972164549908
 20
-156.0315567739999
 10
-78.13515289139832
 20
-165.7962032860014
 10
-75.37058413750128
 20
-175.5608497989997
 10
-72.60601538369883
 20
-185.3254963110012
  0
ENDBLK
  5
2B6
330
2B2
100
AcDbEntity
  8
0
100
AcDbBlockEnd
  0
BLOCK
  5
2BA
330
2B7
100
AcDbEntity
  8
0
100
AcDbBlockBegin
  2
#POLYLINE(97)
 70
     0
 10
0.0
 20
0.0
 30
0.0
  3
#POLYLINE(97)
  1
#POLYLINE(97)
  0
LWPOLYLINE
  5
2B8
330
2B7
100
AcDbEntity
  8
main_beam_width
100
AcDbPolyline
 90
       10
 70
     0
 43
0.0
 10
97.48174139259936
 20
97.43828732310067
 10
100.2604622479994
 20
87.62736326170125
 10
103.0391831029992
 20
77.81643920029819
 10
105.8179039589995
 20
68.00551513889877
 10
108.5966248149998
 20
58.19459107760122
 10
111.3753456710001
 20
48.38366701630002
 10
114.1540665270004
 20
38.57274295510069
 10
116.9327873830007
 20
28.76181889399959
 10
119.7115082400014
 20
18.95089483280026
 10
122.4902290960017
 20
9.139970771761
  0
ENDBLK
  5
2BB
330
2B7
100
AcDbEntity
  8
0
100
AcDbBlockEnd
  0
BLOCK
  5
2BF
330
2BC
100
AcDbEntity
  8
0
100
AcDbBlockBegin
  2
#POLYLINE(98)
 70
     0
 10
0.0
 20
0.0
 30
0.0
  3
#POLYLINE(98)
  1
#POLYLINE(98)
  0
LWPOLYLINE
  5
2BD
330
2BC
100
AcDbEntity
  8
main_beam_width
100
AcDbPolyline
 90
       10
 70
     0
 43
0.0
 10
26357.0745641
 20
-111.3959091819997
 10
26373.7454834
 20
-111.3950670869999
 10
26390.4164028
 20
-111.3942249930005
 10
26407.0873221
 20
-111.3933829000016
 10
26423.7582414
 20
-111.392540806999
 10
26440.4291608
 20
-111.3916987150005
 10
26457.1000801
 20
-111.3908566229984
 10
26473.7709994
 20
-111.3900145320004
 10
26490.4419188
 20
-111.3891724419991
 10
26507.1128381
 20
-111.3883303529983
  0
ENDBLK
  5
2C0
330
2BC
100
AcDbEntity
  8
0
100
AcDbBlockEnd
  0
BLOCK
  5
2C4
330
2C1
100
AcDbEntity
  8
0
100
AcDbBlockBegin
  2
#POLYLINE(99)
 70
     0
 10
0.0
 20
0.0
 30
0.0
  3
#POLYLINE(99)
  1
#POLYLINE(99)
  0
LWPOLYLINE
  5
2C2
330
2C1
100
AcDbEntity
  8
main_beam_width
100
AcDbPolyline
 90
       10
 70
     0
 43
0.0
 10
26357.1574805
 20
78.63444802640151
 10
26373.8191869
 20
78.63360639709936
 10
26390.48089329999
 20
78.63276476829924
 10
26407.1425997
 20
78.63192314029948
 10
26423.8043061
 20
78.63108151289998
 10
26440.4660125
 20
78.63023988610075
 10
26457.1277189
 20
78.62939825990179
 10
26473.7894253
 20
78.62855663440132
 10
26490.4511317
 20
78.62771500959934
 10
26507.1128381
 20
78.62687338540127
  0
ENDBLK
  5
2C5
330
2C1
100
AcDbEntity
  8
0
100
AcDbBlockEnd
  0
BLOCK
  5
2C9
330
2C6
100
AcDbEntity
  8
0
100
AcDbBlockBegin
  2
#POLYLINE(100)
 70
     0
 10
0.0
 20
0.0
 30
0.0
  3
#POLYLINE(100)
  1
#POLYLINE(100)
  0
LWPOLYLINE
  5
2C7
330
2C6
100
AcDbEntity
  8
main_beam_width
100
AcDbPolyline
 90
       10
 70
     0
 43
0.0
 10
285.8006982680017
 20
-4585.09697423
 10
282.2718531249993
 20
-6223.022666550001
 10
278.7326412719995
 20
-7860.948336220001
 10
275.1829558360005
 20
-9498.87398301
 10
271.6227171540013
 20
-11136.7996067
 10
268.0518738409992
 20
-12774.7252073
 10
264.470403493
 20
-14412.6507846
 10
260.8783129910007
 20
-16050.5763387
 10
257.2756384060012
 20
-17688.5018698
 10
253.6624445109992
 20
-19326.4273778
  0
ENDBLK
  5
2CA
330
2C6
100
AcDbEntity
  8
0
100
AcDbBlockEnd
  0
BLOCK
  5
2CE
330
2CB
100
AcDbEntity
  8
0
100
AcDbBlockBegin
  2
#POLYLINE(101)
 70
     0
 10
0.0
 20
0.0
 30
0.0
  3
#POLYLINE(101)
  1
#POLYLINE(101)
  0
LWPOLYLINE
  5
2CC
330
2CB
100
AcDbEntity
  8
main_beam_width
100
AcDbPolyline
 90
       10
 70
     0
 43
0.0
 10
309.1810515819998
 20
-4585.385841629999
 10
305.5520060650015
 20
-6223.28489504
 10
301.9333269390008
 20
-7861.18397109
 10
298.3251210689996
 20
-9499.08307003
 10
294.7274681109993
 20
-11136.982192
 10
291.1404194440001
 20
-12774.8813372
 10
287.5639974699989
 20
-14412.7805056
 10
283.9981953079987
 20
-16050.6796972
 10
280.4429768839982
 20
-17688.5789119
 10
276.8982774309989
 20
-19326.4781496
  0
ENDBLK
  5
2CF
330
2CB
100
AcDbEntity
  8
0
100
AcDbBlockEnd
  0
BLOCK
  5
2D3
330
2D0
100
AcDbEntity
  8
0
100
AcDbBlockBegin
  2
#POLYLINE(102)
 70
     0
 10
0.0
 20
0.0
 30
0.0
  3
#POLYLINE(102)
  1
#POLYLINE(102)
  0
LWPOLYLINE
  5
2D1
330
2D0
100
AcDbEntity
  8
main_beam_width
100
AcDbPolyline
 90
       10
 70
     0
 43
0.0
 10
26507.1128381
 20
78.62687338540127
 10
26490.4511317
 20
78.6276980656985
 10
26473.7894253
 20
78.62852274679972
 10
26457.1277189
 20
78.62934742839934
 10
26440.4660125
 20
78.63017211079932
 10
26423.8043061
 20
78.63099679370134
 10
26407.1425997
 20
78.63182147729822
 10
26390.48089329999
 20
78.63264616160086
 10
26373.8191868
 20
78.63347084639827
 10
26357.1574804
 20
78.63429553199967
  0
ENDBLK
  5
2D4
330
2D0
100
AcDbEntity
  8
0
100
AcDbBlockEnd
  0
BLOCK
  5
2D8
330
2D5
100
AcDbEntity
  8
0
100
AcDbBlockBegin
  2
#POLYLINE(103)
 70
     0
 10
0.0
 20
0.0
 30
0.0
  3
#POLYLINE(103)
  1
#POLYLINE(103)
  0
LWPOLYLINE
  5
2D6
330
2D5
100
AcDbEntity
  8
main_beam_width
100
AcDbPolyline
 90
       10
 70
     0
 43
0.0
 10
26507.1128381
 20
-111.3883303529983
 10
26490.4419188
 20
-111.3891554889997
 10
26473.7709995
 20
-111.3899806260015
 10
26457.1000801
 20
-111.3908057640001
 10
26440.4291608
 20
-111.3916309019987
 10
26423.7582415
 20
-111.3924560410014
 10
26407.0873222
 20
-111.3932811810009
 10
26390.4164028
 20
-111.3941063210004
 10
26373.7454835
 20
-111.3949314620004
 10
26357.0745642
 20
-111.3957566030003
  0
ENDBLK
  5
2D9
330
2D5
100
AcDbEntity
  8
0
100
AcDbBlockEnd
  0
BLOCK
  5
2DD
330
2DA
100
AcDbEntity
  8
0
100
AcDbBlockBegin
  2
#POLYLINE(104)
 70
     0
 10
0.0
 20
0.0
 30
0.0
  3
#POLYLINE(104)
  1
#POLYLINE(104)
  0
LWPOLYLINE
  5
2DB
330
2DA
100
AcDbEntity
  8
main_beam_width
100
AcDbPolyline
 90
       10
 70
     0
 43
0.0
 10
87.88294083310029
 20
23071.9372545
 10
87.8820999640011
 20
23088.60819610001
 10
87.8812590956004
 20
23105.2791376
 10
87.88041822779996
 20
23121.9500792
 10
87.8795773605998
 20
23138.6210207
 10
87.87873649410176
 20
23155.2919623
 10
87.87789562820035
 20
23171.9629038
 10
87.87705476300107
 20
23188.6338454
 10
87.8762138983002
 20
23205.3047869
 10
87.87537303430145
 20
23221.9757285
  0
ENDBLK
  5
2DE
330
2DA
100
AcDbEntity
  8
0
100
AcDbBlockEnd
  0
BLOCK
  5
2E2
330
2DF
100
AcDbEntity
  8
0
100
AcDbBlockBegin
  2
#POLYLINE(105)
 70
     0
 10
0.0
 20
0.0
 30
0.0
  3
#POLYLINE(105)
  1
#POLYLINE(105)
  0
LWPOLYLINE
  5
2E0
330
2DF
100
AcDbEntity
  8
main_beam_width
100
AcDbPolyline
 90
       10
 70
     0
 43
0.0
 10
-103.0640507919998
 20
23072.0205709
 10
-103.0632103899989
 20
23088.682255
 10
-103.0623699880016
 20
23105.3439392
 10
-103.0615295870011
 20
23122.0056234
 10
-103.0606891870011
 20
23138.6673076
 10
-103.0598487870011
 20
23155.3289918
 10
-103.0590083880015
 20
23171.9906759
 10
-103.0581679899988
 20
23188.6523601
 10
-103.0573275919996
 20
23205.3140443
 10
-103.056487195001
 20
23221.9757285
  0
ENDBLK
  5
2E3
330
2DF
100
AcDbEntity
  8
0
100
AcDbBlockEnd
  0
BLOCK
  5
2E7
330
2E4
100
AcDbEntity
  8
0
100
AcDbBlockBegin
  2
#POLYLINE(106)
 70
     0
 10
0.0
 20
0.0
 30
0.0
  3
#POLYLINE(106)
  1
#POLYLINE(106)
  0
LWPOLYLINE
  5
2E5
330
2E4
100
AcDbEntity
  8
main_beam_width
100
AcDbPolyline
 90
       10
 70
     0
 43
0.0
 10
253.6624445109992
 20
-19326.4273778
 10
253.6377985030012
 20
-19337.5816551
 10
253.6131522639989
 20
-19348.7359323
 10
253.5885057949999
 20
-19359.8902096
 10
253.5638590960007
 20
-19371.0444869
 10
253.5392121660007
 20
-19382.1987642
 10
253.5145650070008
 20
-19393.3530415
 10
253.4899176180006
 20
-19404.5073188
 10
253.4652699990002
 20
-19415.6615961
 10
253.440622148999
 20
-19426.8158733
  0
ENDBLK
  5
2E8
330
2E4
100
AcDbEntity
  8
0
100
AcDbBlockEnd
  0
BLOCK
  5
2EC
330
2E9
100
AcDbEntity
  8
0
100
AcDbBlockBegin
  2
#POLYLINE(107)
 70
     0
 10
0.0
 20
0.0
 30
0.0
  3
#POLYLINE(107)
  1
#POLYLINE(107)
  0
LWPOLYLINE
  5
2EA
330
2E9
100
AcDbEntity
  8
main_beam_width
100
AcDbPolyline
 90
       10
 70
     0
 43
0.0
 10
276.8982774309989
 20
-19326.4781496
 10
276.8743726069988
 20
-19337.542252
 10
276.8504680090009
 20
-19348.6063544
 10
276.8265636379983
 20
-19359.6704568
 10
276.8026594930016
 20
-19370.7345592
 10
276.7787555750001
 20
-19381.7986616
 10
276.7548518830008
 20
-19392.862764
 10
276.730948417
 20
-19403.9268664
 10
276.7070451770014
 20
-19414.9909688
 10
276.6831421640018
 20
-19426.0550712
  0
ENDBLK
  5
2ED
330
2E9
100
AcDbEntity
  8
0
100
AcDbBlockEnd
  0
BLOCK
  5
2F1
330
2EE
100
AcDbEntity
  8
0
100
AcDbBlockBegin
  2
#POLYLINE(108)
 70
     0
 10
0.0
 20
0.0
 30
0.0
  3
#POLYLINE(108)
  1
#POLYLINE(108)
  0
LWPOLYLINE
  5
2EF
330
2EE
100
AcDbEntity
  8
main_beam_width
100
AcDbPolyline
 90
       10
 70
     0
 43
0.0
 10
253.6624445109992
 20
-19326.4273778
 10
253.6377985020008
 20
-19337.5816551
 10
253.6131522629985
 20
-19348.7359323
 10
253.5885057939995
 20
-19359.8902096
 10
253.5638590950002
 20
-19371.0444869
 10
253.5392121660007
 20
-19382.1987642
 10
253.5145650070008
 20
-19393.3530415
 10
253.4899176170002
 20
-19404.5073188
 10
253.4652699979997
 20
-19415.6615961
 10
253.440622148999
 20
-19426.8158733
  0
ENDBLK
  5
2F2
330
2EE
100
AcDbEntity
  8
0
100
AcDbBlockEnd
  0
BLOCK
  5
2F6
330
2F3
100
AcDbEntity
  8
0
100
AcDbBlockBegin
  2
#POLYLINE(109)
 70
     0
 10
0.0
 20
0.0
 30
0.0
  3
#POLYLINE(109)
  1
#POLYLINE(109)
  0
LWPOLYLINE
  5
2F4
330
2F3
100
AcDbEntity
  8
main_beam_width
100
AcDbPolyline
 90
       10
 70
     0
 43
0.0
 10
276.8982774299984
 20
-19326.4781496
 10
276.8743726059984
 20
-19337.542252
 10
276.8504680090009
 20
-19348.6063544
 10
276.8265636370015
 20
-19359.6704568
 10
276.8026594930016
 20
-19370.7345592
 10
276.7787555739997
 20
-19381.7986616
 10
276.7548518820004
 20
-19392.862764
 10
276.7309484159996
 20
-19403.9268664
 10
276.7070451770014
 20
-19414.9909688
 10
276.6831421640018
 20
-19426.0550712
  0
ENDBLK
  5
2F7
330
2F3
100
AcDbEntity
  8
0
100
AcDbBlockEnd
  0
BLOCK
  5
2FB
330
2F8
100
AcDbEntity
  8
0
100
AcDbBlockBegin
  2
#POLYLINE(110)
 70
     0
 10
0.0
 20
0.0
 30
0.0
  3
#POLYLINE(110)
  1
#POLYLINE(110)
  0
LWPOLYLINE
  5
2F9
330
2F8
100
AcDbEntity
  8
main_beam_width
100
AcDbPolyline
 90
       39
 70
     0
 43
0.0
 10
26507.1128381
 20
-111.3883303529983
 10
105454.481259
 20
-107.3933639550014
 10
184401.84968
 20
-103.4488840980011
 10
263349.218101
 20
-99.56207334249848
 10
342296.586522
 20
-95.74140543990143
 10
421243.954943
 20
-91.99690707859918
 10
500191.323364
 20
-88.34046992000003
 10
579138.691785
 20
-84.78621666850086
 10
658086.060207
 20
-81.35091967900007
 10
737033.428628
 20
-78.0544601531983
 10
815980.797049
 20
-74.9202972901985
 10
894928.16547
 20
-71.97588616859866
 10
973875.533891
 20
-69.25293766670075
 10
1052822.90231
 20
-66.7873545729999
 10
1131770.27073
 20
-64.61861719640001
 10
1210717.63915
 20
-62.78836110100019
 10
1289665.00757
 20
-61.33794510980078
 10
1368612.376
 20
-60.30501325099976
 10
1447559.74442
 20
-59.71942668519841
 10
1526507.11284
 20
-59.59937301609898
 10
1605454.48126
 20
-59.94870080929832
 10
1684401.84968
 20
-60.75632643860081
 10
1763349.2181
 20
-61.99791470849959
 10
1842296.58652
 20
-63.6392744645018
 10
1921243.95494
 20
-65.64046012430117
 10
2000191.32336
 20
-67.95960650869893
 10
2079138.69179
 20
-70.55589492799845
 10
2158086.06021
 20
-73.39147452469842
 10
2237033.42863
 20
-76.43245762589868
 10
2315980.79705
 20
-79.6492331738009
 10
2394928.16547
 20
-83.01634735530024
 10
2473875.53389
 20
-86.5121495659987
 10
2552822.90231
 20
-90.11833929099885
 10
2631770.27073
 20
-93.8194963977985
 10
2710717.63915
 20
-97.60263937270065
 10
2789665.00757
 20
-101.4568317369994
 10
2868612.376
 20
-105.3728426570015
 10
2947559.74442
 20
-109.3428601790001
 10
3026507.11284
 20
-113.3602519790002
  0
ENDBLK
  5
2FC
330
2F8
100
AcDbEntity
  8
0
100
AcDbBlockEnd
  0
BLOCK
  5
300
330
2FD
100
AcDbEntity
  8
0
100
AcDbBlockBegin
  2
#POLYLINE(111)
 70
     0
 10
0.0
 20
0.0
 30
0.0
  3
#POLYLINE(111)
  1
#POLYLINE(111)
  0
LWPOLYLINE
  5
2FE
330
2FD
100
AcDbEntity
  8
main_beam_width
100
AcDbPolyline
 90
       39
 70
     0
 43
0.0
 10
26507.1128381
 20
78.62687338540127
 10
105454.481259
 20
74.63190698809922
 10
184401.84968
 20
70.68742713060055
 10
263349.218101
 20
66.80061637530162
 10
342296.586522
 20
62.97994847270093
 10
421243.954943
 20
59.23545011139868
 10
500191.323364
 20
55.57901295279953
 10
579138.691785
 20
52.02475970130035
 10
658086.060207
 20
48.58946271179957
 10
737033.428628
 20
45.29300318600144
 10
815980.797049
 20
42.15884032300164
 10
894928.16547
 20
39.2144292014018
 10
973875.533891
 20
36.49148069950024
 10
1052822.90231
 20
34.0258976057994
 10
1131770.27073
 20
31.85716022919951
 10
1210717.63915
 20
30.02690413379969
 10
1289665.00757
 20
28.57648814260028
 10
1368612.376
 20
27.54355628379926
 10
1447559.74442
 20
26.95796971800155
 10
1526507.11284
 20
26.83791604889848
 10
1605454.48126
 20
27.18724384210145
 10
1684401.84968
 20
27.99486947140031
 10
1763349.2181
 20
29.23645774129909
 10
1842296.58652
 20
30.87781749730129
 10
1921243.95494
 20
32.87900315710067
 10
2000191.32336
 20
35.19814954149842
 10
2079138.69179
 20
37.79443796080159
 10
2158086.06021
 20
40.63001755750156
 10
2237033.42863
 20
43.67100065870181
 10
2315980.79705
 20
46.88777620660039
 10
2394928.16547
 20
50.25489038809974
 10
2473875.53389
 20
53.7506925987982
 10
2552822.90231
 20
57.35688232379835
 10
2631770.27073
 20
61.05803943060164
 10
2710717.63915
 20
64.84118240550015
 10
2789665.00757
 20
68.6953747701009
 10
2868612.376
 20
72.61138569020113
 10
2947559.74442
 20
76.5814032117014
 10
3026507.11284
 20
80.59879501230171
  0
ENDBLK
  5
301
330
2FD
100
AcDbEntity
  8
0
100
AcDbBlockEnd
  0
BLOCK
  5
305
330
302
100
AcDbEntity
  8
0
100
AcDbBlockBegin
  2
#POLYLINE(112)
 70
     0
 10
0.0
 20
0.0
 30
0.0
  3
#POLYLINE(112)
  1
#POLYLINE(112)
  0
LWPOLYLINE
  5
303
330
302
100
AcDbEntity
  8
main_beam_width
100
AcDbPolyline
 90
       10
 70
     0
 43
0.0
 10
285.8006982680017
 20
-4585.09697423
 10
282.2718531239989
 20
-6223.022666550001
 10
278.732641270999
 20
-7860.948336220001
 10
275.1829558360005
 20
-9498.87398301
 10
271.6227171530008
 20
-11136.7996067
 10
268.0518738409992
 20
-12774.7252073
 10
264.470403493
 20
-14412.6507846
 10
260.8783129900003
 20
-16050.5763387
 10
257.2756384060012
 20
-17688.5018698
 10
253.6624445109992
 20
-19326.4273778
  0
ENDBLK
  5
306
330
302
100
AcDbEntity
  8
0
100
AcDbBlockEnd
  0
BLOCK
  5
30A
330
307
100
AcDbEntity
  8
0
100
AcDbBlockBegin
  2
#POLYLINE(113)
 70
     0
 10
0.0
 20
0.0
 30
0.0
  3
#POLYLINE(113)
  1
#POLYLINE(113)
  0
LWPOLYLINE
  5
308
330
307
100
AcDbEntity
  8
main_beam_width
100
AcDbPolyline
 90
       10
 70
     0
 43
0.0
 10
309.1810515819998
 20
-4585.385841629999
 10
305.5520060650015
 20
-6223.28489504
 10
301.9333269390008
 20
-7861.18397109
 10
298.3251210689996
 20
-9499.08307003
 10
294.7274681109993
 20
-11136.982192
 10
291.1404194440001
 20
-12774.8813372
 10
287.5639974699989
 20
-14412.7805056
 10
283.9981953069982
 20
-16050.6796972
 10
280.4429768839982
 20
-17688.5789119
 10
276.8982774299984
 20
-19326.4781496
  0
ENDBLK
  5
30B
330
307
100
AcDbEntity
  8
0
100
AcDbBlockEnd
  0
BLOCK
  5
30F
330
30C
100
AcDbEntity
  8
0
100
AcDbBlockBegin
  2
#POLYLINE(114)
 70
     0
 10
0.0
 20
0.0
 30
0.0
  3
#POLYLINE(114)
  1
#POLYLINE(114)
  0
LWPOLYLINE
  5
30D
330
30C
100
AcDbEntity
  8
main_beam_width
100
AcDbPolyline
 90
       10
 70
     0
 43
0.0
 10
-19561.6355602
 20
214.3992897370008
 10
-19550.5730862
 20
214.4309858779998
 10
-19539.5106121
 20
214.4626818149991
 10
-19528.4481381
 20
214.4943775489992
 10
-19517.385664
 20
214.5260730789996
 10
-19506.32319
 20
214.5577684050004
 10
-19495.2607159
 20
214.5894635279983
 10
-19484.1982419
 20
214.6211584470002
 10
-19473.1357679
 20
214.6528531619988
 10
-19462.0732938
 20
214.6845476730014
  0
ENDBLK
  5
310
330
30C
100
AcDbEntity
  8
0
100
AcDbBlockEnd
  0
BLOCK
  5
314
330
311
100
AcDbEntity
  8
0
100
AcDbBlockBegin
  2
#POLYLINE(115)
 70
     0
 10
0.0
 20
0.0
 30
0.0
  3
#POLYLINE(115)
  1
#POLYLINE(115)
  0
LWPOLYLINE
  5
312
330
311
100
AcDbEntity
  8
main_beam_width
100
AcDbPolyline
 90
       10
 70
     0
 43
0.0
 10
-19562.5444306
 20
238.4668550130009
 10
-19551.3885614
 20
238.4982292370005
 10
-19540.2326922
 20
238.5296036680011
 10
-19529.076823
 20
238.5609783069995
 10
-19517.9209539
 20
238.5923531519984
 10
-19506.7650847
 20
238.6237282039983
 10
-19495.6092155
 20
238.6551034639997
 10
-19484.4533463
 20
238.6864789309984
 10
-19473.2974772
 20
238.7178546050018
 10
-19462.141608
 20
238.7492304859989
  0
ENDBLK
  5
315
330
311
100
AcDbEntity
  8
0
100
AcDbBlockEnd
  0
BLOCK
  5
319
330
316
100
AcDbEntity
  8
0
100
AcDbBlockBegin
  2
#POLYLINE(116)
 70
     0
 10
0.0
 20
0.0
 30
0.0
  3
#POLYLINE(116)
  1
#POLYLINE(116)
  0
LWPOLYLINE
  5
317
330
316
100
AcDbEntity
  8
main_beam_width
100
AcDbPolyline
 90
      100
 70
     0
 43
0.0
 10
-4700.81152046
 20
280.6524389149999
 10
-4812.567788709999
 20
278.9397846270003
 10
-4924.324057779999
 20
277.2271658960017
 10
-5036.080327529999
 20
275.5145763420005
 10
-5147.83659784
 20
273.8020110229991
 10
-5259.592868629999
 20
272.0894660529993
 10
-5371.349139810001
 20
270.3769383360013
 10
-5483.105411329998
 20
268.6644253720006
 10
-5594.86168315
 20
266.9519251230013
 10
-5706.617955230002
 20
265.2394359099999
 10
-5818.374227529999
 20
263.5269563350012
 10
-5930.130500020001
 20
261.8144852299993
 10
-6041.886772689999
 20
260.1020216059987
 10
-6153.643045509998
 20
258.3895646220008
 10
-6265.399318470001
 20
256.6771135599993
 10
-6377.155591549999
 20
254.9646678009995
 10
-6488.91186475
 20
253.2522268089997
 10
-6600.66813804
 20
251.5397901190008
 10
-6712.424411420001
 20
249.8273573229999
 10
-6824.180684880001
 20
248.1149280649988
 10
-6935.936958419999
 20
246.4025020299996
 10
-7047.69323203
 20
244.6900789389983
 10
-7159.449505700002
 20
242.9776585440013
 10
-7271.205779429998
 20
241.2652406259986
 10
-7382.962053210002
 20
239.5528249880008
 10
-7494.718327039998
 20
237.8404114520017
 10
-7606.474600909998
 20
236.1279998600003
 10
-7718.230874829998
 20
234.4155900689984
 10
-7829.987148780001
 20
232.7031819490003
 10
-7941.74342277
 20
230.9907753820007
 10
-8053.499696799998
 20
229.2783702630004
 10
-8165.255970850001
 20
227.565966492999
 10
-8277.01224494
 20
225.8535639850015
 10
-8388.768519049998
 20
224.1411626570007
 10
-8500.524793190001
 20
222.4287624360004
 10
-8612.281067349999
 20
220.7163632519987
 10
-8724.037341529998
 20
219.0039650440012
 10
-8835.79361574
 20
217.291567753
 10
-8947.549889959999
 20
215.5791713270009
 10
-9059.30616421
 20
213.8667757160001
 10
-9171.062438469999
 20
212.1543808749993
 10
-9282.818712749999
 20
210.4419867610013
 10
-9394.57498704
 20
208.7295933360001
 10
-9506.331261350002
 20
207.0172005620007
 10
-9618.087535680002
 20
205.3048084059992
 10
-9729.84381002
 20
203.5924168370002
 10
-9841.600084370002
 20
201.8800258250012
 10
-9953.356358730001
 20
200.1676353420007
 10
-10065.1126331
 20
198.4552453629985
 10
-10176.8689075
 20
196.7428558630018
 10
-10288.6251819
 20
195.0304668200006
 10
-10400.3814563
 20
193.3180782140007
 10
-10512.1377307
 20
191.6056900229996
 10
-10623.8940051
 20
189.8933022290003
 10
-10735.6502796
 20
188.1809148149987
 10
-10847.406554
 20
186.4685277639983
 10
-10959.1628285
 20
184.7561410599992
 10
-11070.9191029
 20
183.0437546899993
 10
-11182.6753774
 20
181.3313686369984
 10
-11294.4316519
 20
179.6189828909992
 10
-11406.1879263
 20
177.9065974369987
 10
-11517.9442008
 20
176.1942122649998
 10
-11629.7004753
 20
174.4818273640012
 10
-11741.4567498
 20
172.7694427220013
 10
-11853.2130243
 20
171.0570583289991
 10
-11964.9692988
 20
169.3446741769985
 10
-12076.7255734
 20
167.6322902559987
 10
-12188.4818479
 20
165.9199065569992
 10
-12300.2381224
 20
164.2075230730006
 10
-12411.9943969
 20
162.495139794999
 10
-12523.7506715
 20
160.7827567159984
 10
-12635.506946
 20
159.0703738299999
 10
-12747.2632205
 20
157.3579911289999
 10
-12859.0194951
 20
155.6456086059989
 10
-12970.7757696
 20
153.9332262569988
 10
-13082.5320442
 20
152.2208440750001
 10
-13194.2883188
 20
150.5084620540001
 10
-13306.0445933
 20
148.7960801890003
 10
-13417.8008679
 20
147.0836984749985
 10
-13529.5571425
 20
145.3713169069997
 10
-13641.313417
 20
143.6589354809985
 10
-13753.0696916
 20
141.9465541909994
 10
-13864.8259662
 20
140.2341730350017
 10
-13976.5822408
 20
138.5217920059986
 10
-14088.3385154
 20
136.809411102
 10
-14200.0947899
 20
135.0970303200011
 10
-14311.8510645
 20
133.3846496539991
 10
-14423.6073391
 20
131.6722691020004
 10
-14535.3636137
 20
129.9598886599997
 10
-14647.1198883
 20
128.2475083249992
 10
-14758.8761629
 20
126.5351280940013
 10
-14870.6324375
 20
124.8227479650013
 10
-14982.3887121
 20
123.1103679330008
 10
-15094.1449867
 20
121.3979879969993
 10
-15205.9012614
 20
119.6856081529986
 10
-15317.657536
 20
117.9732283999983
 10
-15429.4138106
 20
116.2608487340003
 10
-15541.1700852
 20
114.5484691540005
 10
-15652.9263598
 20
112.8360896570011
 10
-15764.6826344
 20
111.1237102410014
  0
ENDBLK
  5
31A
330
316
100
AcDbEntity
  8
0
100
AcDbBlockEnd
  0
BLOCK
  5
31E
330
31B
100
AcDbEntity
  8
0
100
AcDbBlockBegin
  2
#POLYLINE(117)
 70
     0
 10
0.0
 20
0.0
 30
0.0
  3
#POLYLINE(117)
  1
#POLYLINE(117)
  0
LWPOLYLINE
  5
31C
330
31B
100
AcDbEntity
  8
main_beam_width
100
AcDbPolyline
 90
      100
 70
     0
 43
0.0
 10
-4700.498538569998
 20
256.5892200960006
 10
-4812.235599799998
 20
253.1218570419987
 10
-4923.97266019
 20
249.6544584340008
 10
-5035.70971992
 20
246.1870306519995
 10
-5147.446779080001
 20
242.7195786390002
 10
-5259.183837770001
 20
239.2521062779997
 10
-5370.920896060001
 20
235.7846166669988
 10
-5482.657954009999
 20
232.3171123050015
 10
-5594.395011659999
 20
228.8495952289995
 10
-5706.132069060001
 20
225.3820671190006
 10
-5817.869126229998
 20
221.9145293699985
 10
-5929.606183210002
 20
218.4469831550014
 10
-6041.34324002
 20
214.9794294589992
 10
-6153.080296669999
 20
211.5118691239986
 10
-6264.817353179998
 20
208.0443028679983
 10
-6376.554409569999
 20
204.576731309
 10
-6488.291465850001
 20
201.1091549849989
 10
-6600.028522029999
 20
197.6415743590005
 10
-6711.765578120001
 20
194.1739898380001
 10
-6823.50263413
 20
190.7064017810007
 10
-6935.23969006
 20
187.238810502
 10
-7046.976745929998
 20
183.7712162790012
 10
-7158.713801730002
 20
180.3036193599983
 10
-7270.450857479998
 20
176.836019964001
 10
-7382.187913170001
 20
173.3684182899997
 10
-7493.924968809999
 20
169.9008145129992
 10
-7605.662024410001
 20
166.4332087930015
 10
-7717.39907997
 20
162.9656012720006
 10
-7829.13613549
 20
159.4979920810001
 10
-7940.87319097
 20
156.0303813360006
 10
-8052.610246420001
 20
152.5627691439986
 10
-8164.34730184
 20
149.0951556020009
 10
-8276.08435723
 20
145.6275407989997
 10
-8387.821412589998
 20
142.1599248159982
 10
-8499.55846792
 20
138.6923077280007
 10
-8611.295523230001
 20
135.2246896010001
 10
-8723.03257852
 20
131.7570704989994
 10
-8834.769633789998
 20
128.2894504799988
 10
-8946.506689039998
 20
124.8218295959996
 10
-9058.24374427
 20
121.3542078969986
 10
-9169.98079948
 20
117.8865854290016
 10
-9281.717854670002
 20
114.4189622330014
 10
-9393.45490985
 20
110.9513383490012
 10
-9505.191965010003
 20
107.4837138139992
 10
-9616.929020160002
 20
104.0160886599988
 10
-9728.6660753
 20
100.54846292
 10
-9840.40313042
 20
97.08083662380159
 10
-9952.14018553
 20
93.61320979780066
 10
-10063.8772406
 20
90.14558246820161
 10
-10175.6142957
 20
86.67795465909876
 10
-10287.3513508
 20
83.21032639309851
 10
-10399.0884059
 20
79.74269769130115
 10
-10510.8254609
 20
76.27506857370099
 10
-10622.562516
 20
72.8074390590009
 10
-10734.299571
 20
69.33980916469955
 10
-10846.036626
 20
65.87217890740067
 10
-10957.7736811
 20
62.4045483027985
 10
-11069.5107361
 20
58.93691736549954
 10
-11181.2477911
 20
55.46928610960094
 10
-11292.9848461
 20
52.00165454810121
 10
-11404.7219011
 20
48.53402269339858
 10
-11516.4589561
 20
45.06639055749838
 10
-11628.196011
 20
41.59875815129999
 10
-11739.933066
 20
38.13112548549907
 10
-11851.670121
 20
34.66349257019829
 10
-11963.4071759
 20
31.19585941469995
 10
-12075.1442309
 20
27.72822602809902
 10
-12186.8812858
 20
24.26059241910116
 10
-12298.6183408
 20
20.79295859580088
 10
-12410.3553957
 20
17.32532456600165
 10
-12522.0924507
 20
13.85769033709948
 10
-12633.8295056
 20
10.39005591610112
 10
-12745.5665605
 20
6.922421309711353
 10
-12857.3036155
 20
3.454786524420342
 10
-12969.0406704
 20
-0.0128484336892143
 10
-13080.7777253
 20
-3.48048355876017
 10
-13192.5147802
 20
-6.948118845219142
 10
-13304.2518351
 20
-10.41575428770011
 10
-13415.98889
 20
-13.88338988120086
 10
-13527.7259449
 20
-17.35102562070097
 10
-13639.4629998
 20
-20.8186615015984
 10
-13751.2000547
 20
-24.28629751940025
 10
-13862.9371096
 20
-27.75393366979915
 10
-13974.6741645
 20
-31.22156994869874
 10
-14086.4112194
 20
-34.68920635219911
 10
-14198.1482743
 20
-38.15684287640033
 10
-14309.8853292
 20
-41.62447951770082
 10
-14421.6223841
 20
-45.09211627269906
 10
-14533.3594389
 20
-48.55975313800081
 10
-14645.0964938
 20
-52.02739011040103
 10
-14756.8335487
 20
-55.49502718669828
 10
-14868.5706035
 20
-58.9626643640986
 10
-14980.3076584
 20
-62.43030163949879
 10
-15092.0447133
 20
-65.89793901039957
 10
-15203.7817681
 20
-69.36557647390146
 10
-15315.518823
 20
-72.83321402759975
 10
-15427.2558779
 20
-76.3008516689988
 10
-15538.9929327
 20
-79.76848939570118
 10
-15650.7299876
 20
-83.23612720540041
 10
-15762.4670424
 20
-86.703765096001
  0
ENDBLK
  5
31F
330
31B
100
AcDbEntity
  8
0
100
AcDbBlockEnd
  0
BLOCK
  5
323
330
320
100
AcDbEntity
  8
0
100
AcDbBlockBegin
  2
#POLYLINE(118)
 70
     0
 10
0.0
 20
0.0
 30
0.0
  3
#POLYLINE(118)
  1
#POLYLINE(118)
  0
LWPOLYLINE
  5
321
330
320
100
AcDbEntity
  8
main_beam_width
100
AcDbPolyline
 90
       10
 70
     0
 43
0.0
 10
-103.0640464280004
 20
23072.0205709
 10
-102.4448675489984
 20
20497.6349953
 10
-101.8257347629988
 20
17923.24941979999
 10
-101.2066477420012
 20
15348.8638442
 10
-100.5876061620002
 20
12774.4782686
 10
-99.96860970120179
 20
10200.092693
 10
-99.34965804090098
 20
7625.707117350001
 10
-98.7307508656013
 20
5051.321541720001
 10
-98.11188786229832
 20
2476.935966059998
 10
-97.49306872119996
 20
-97.44960960240132
  0
ENDBLK
  5
324
330
320
100
AcDbEntity
  8
0
100
AcDbBlockEnd
  0
BLOCK
  5
328
330
325
100
AcDbEntity
  8
0
100
AcDbBlockBegin
  2
#POLYLINE(119)
 70
     0
 10
0.0
 20
0.0
 30
0.0
  3
#POLYLINE(119)
  1
#POLYLINE(119)
  0
LWPOLYLINE
  5
326
330
325
100
AcDbEntity
  8
main_beam_width
100
AcDbPolyline
 90
       10
 70
     0
 43
0.0
 10
87.88294519629926
 20
23071.9372545
 10
88.9486405200987
 20
20519.2144881
 10
90.0143811673006
 20
17966.4917216
 10
91.08016681830122
 20
15413.7689552
 10
92.14599715660006
 20
12861.0461887
 10
93.21187186850148
 20
10308.3234223
 10
94.27779064339848
 20
7755.600655949998
 10
95.34375317320155
 20
5202.877889569998
 10
96.40975915289891
 20
2650.155123200002
 10
97.47580827999991
 20
97.4323568553009
  0
ENDBLK
  5
329
330
325
100
AcDbEntity
  8
0
100
AcDbBlockEnd
  0
BLOCK
  5
32D
330
32A
100
AcDbEntity
  8
0
100
AcDbBlockBegin
  2
#POLYLINE(120)
 70
     0
 10
0.0
 20
0.0
 30
0.0
  3
#POLYLINE(120)
  1
#POLYLINE(120)
  0
LWPOLYLINE
  5
32B
330
32A
100
AcDbEntity
  8
main_beam_width
100
AcDbPolyline
 90
       39
 70
     0
 43
0.0
 10
87.87537303430145
 20
23221.9757285
 10
83.90461292480177
 20
102169.34415
 10
79.98354280789863
 20
181116.712571
 10
76.11914560399964
 20
260064.080992
 10
72.3196437147999
 20
339011.449413
 10
68.59474710659924
 20
417958.817834
 10
64.95594850289854
 20
496906.186255
 10
61.41686922969893
 20
575853.554676
 10
57.99365454769941
 20
654800.923097
 10
54.70540795060151
 20
733748.291518
 10
51.57463723800174
 20
812695.659939
 10
48.62765788289835
 20
891643.02836
 10
45.89485853839869
 20
970590.396781
 10
43.41068005649868
 20
1049537.7652
 10
41.21310272510163
 20
1128485.13362
 10
39.34240305050116
 20
1207432.50204
 10
37.8389795473995
 20
1286379.87047
 10
36.74021513379921
 20
1365327.23889
 10
36.07666686760058
 20
1444274.60731
 10
35.86827452919897
 20
1523221.97573
 10
36.12154831090083
 20
1602169.34415
 10
36.82859178500075
 20
1681116.71257
 10
37.96828321920111
 20
1760064.08099
 10
39.50922623420047
 20
1839011.44941
 10
41.41358317780032
 20
1917958.81783
 10
43.64084395379905
 20
1996906.18625
 10
46.15087625310116
 20
2075853.55468
 10
48.90600367220031
 20
2154800.9231
 10
51.87216748149876
 20
2233748.29152
 10
55.01938113310098
 20
2312695.65994
 10
58.32171513959838
 20
2391643.02836
 10
61.75701252829822
 20
2470590.39678
 10
65.30647788929855
 20
2549537.7652
 10
68.95423058959932
 20
2628485.13362
 10
72.6868734144009
 20
2707432.50204
 10
76.49310179319946
 20
2786379.87047
 10
80.3633629438009
 20
2865327.23889
 10
84.28956547599955
 20
2944274.60731
 10
88.26483561960049
 20
3023221.97573
  0
ENDBLK
  5
32E
330
32A
100
AcDbEntity
  8
0
100
AcDbBlockEnd
  0
BLOCK
  5
332
330
32F
100
AcDbEntity
  8
0
100
AcDbBlockBegin
  2
#POLYLINE(121)
 70
     0
 10
0.0
 20
0.0
 30
0.0
  3
#POLYLINE(121)
  1
#POLYLINE(121)
  0
LWPOLYLINE
  5
330
330
32F
100
AcDbEntity
  8
main_beam_width
100
AcDbPolyline
 90
       39
 70
     0
 43
0.0
 10
-103.056487195001
 20
23221.9757285
 10
-99.08572708630163
 20
102169.34415
 10
-95.16465696970045
 20
181116.712571
 10
-91.30025976629986
 20
260064.080992
 10
-87.50075787739843
 20
339011.449413
 10
-83.77586126969982
 20
417958.817834
 10
-80.13706266630106
 20
496906.186255
 10
-76.59798339359986
 20
575853.554676
 10
-73.17476871200051
 20
654800.923097
 10
-69.88652211529916
 20
733748.291518
 10
-66.75575140309957
 20
812695.659939
 10
-63.80877204839999
 20
891643.02836
 10
-61.07597270430051
 20
970590.396781
 10
-58.5917942228989
 20
1049537.7652
 10
-56.39421689180017
 20
1128485.13362
 10
-54.52351721770174
 20
1207432.50204
 10
-53.02009371489839
 20
1286379.87047
 10
-51.92132930180014
 20
1365327.23889
 10
-51.25778103600169
 20
1444274.60731
 10
-51.04938869800026
 20
1523221.97573
 10
-51.30266248009866
 20
1602169.34415
 10
-52.00970595470062
 20
1681116.71257
 10
-53.14939738919929
 20
1760064.08099
 10
-54.69034040470069
 20
1839011.44941
 10
-56.59469734870072
 20
1917958.81783
 10
-58.82195812509963
 20
1996906.18625
 10
-61.33199042479828
 20
2075853.55468
 10
-64.08711784430125
 20
2154800.9231
 10
-67.05328165399987
 20
2233748.29152
 10
-70.20049530610049
 20
2312695.65994
 10
-73.50282931289985
 20
2391643.02836
 10
-76.93812670199986
 20
2470590.39678
 10
-80.4875920634986
 20
2549537.7652
 10
-84.13534476419954
 20
2628485.13362
 10
-87.86798758940131
 20
2707432.50204
 10
-91.67421596860004
 20
2786379.87047
 10
-95.54447711960165
 20
2865327.23889
 10
-99.47067965220049
 20
2944274.60731
 10
-103.4459497960015
 20
3023221.97573
  0
ENDBLK
  5
333
330
32F
100
AcDbEntity
  8
0
100
AcDbBlockEnd
  0
BLOCK
  5
337
330
334
100
AcDbEntity
  8
0
100
AcDbBlockBegin
  2
#POLYLINE(122)
 70
     0
 10
0.0
 20
0.0
 30
0.0
  3
#POLYLINE(122)
  1
#POLYLINE(122)
  0
LWPOLYLINE
  5
335
330
334
100
AcDbEntity
  8
main_beam_width
100
AcDbPolyline
 90
      100
 70
     0
 43
0.0
 10
146.3023864899988
 20
-15694.7987085
 10
147.9475859179984
 20
-15582.5824161
 10
149.5927854280017
 20
-15470.3661237
 10
151.2379850209982
 20
-15358.1498314
 10
152.8831846989997
 20
-15245.933539
 10
154.5283844660007
 20
-15133.7172466
 10
156.1735843230017
 20
-15021.5009542
 10
157.8187842730003
 20
-14909.2846618
 10
159.4639843190016
 20
-14797.0683695
 10
161.1091844629991
 20
-14684.8520771
 10
162.7543847089983
 20
-14572.6357847
 10
164.3995850600004
 20
-14460.4194924
 10
166.0447855179991
 20
-14348.2032
 10
167.6899860869999
 20
-14235.9869077
 10
169.3351867700003
 20
-14123.7706153
 10
170.9803875709986
 20
-14011.5543229
 10
172.6255884940001
 20
-13899.3380306
 10
174.2707895409985
 20
-13787.1217382
 10
175.9159907180001
 20
-13674.9054459
 10
177.5611920289994
 20
-13562.6891536
 10
179.2063934770013
 20
-13450.4728612
 10
180.8515950670007
 20
-13338.2565689
 10
182.4967968050005
 20
-13226.0402765
 10
184.1419986940018
 20
-13113.8239842
 10
185.7872007410006
 20
-13001.6076919
 10
187.4324029499985
 20
-12889.3913996
 10
189.0776053269983
 20
-12777.1751073
 10
190.7228078789994
 20
-12664.9588149
 10
192.3680106110005
 20
-12552.7425226
 10
194.0132135290005
 20
-12440.5262303
 10
195.6584166409993
 20
-12328.309938
 10
197.3036199540002
 20
-12216.0936457
 10
198.9488234749988
 20
-12103.8773534
 10
200.5940272129992
 20
-11991.6610611
 10
202.2392311740005
 20
-11879.4447689
 10
203.8844353690001
 20
-11767.2284766
 10
205.5296398069986
 20
-11655.0121843
 10
207.1748444959994
 20
-11542.795892
 10
208.8200494480006
 20
-11430.5795998
 10
210.465254671999
 20
-11318.3633075
 10
212.1104601810002
 20
-11206.1470153
 10
213.7556659859983
 20
-11093.930723
 10
215.4008720989987
 20
-10981.7144308
 10
217.0460785350006
 20
-10869.4981386
 10
218.6912853079994
 20
-10757.2818464
 10
220.3364924320013
 20
-10645.0655541
 10
221.9816999229988
 20
-10532.8492619
 10
223.6269077979996
 20
-10420.6329697
 10
225.2721160760011
 20
-10308.4166776
 10
226.9173247750005
 20
-10196.2003854
 10
228.5625339159997
 20
-10083.9840932
 10
230.2077435190004
 20
-9971.76780106
 10
231.8529536089991
 20
-9859.55150892
 10
233.4981642099992
 20
-9747.33521678
 10
235.1433753480014
 20
-9635.11892466
 10
236.7885870520004
 20
-9522.90263255
 10
238.4337993510017
 20
-9410.68634046
 10
240.0790122780018
 20
-9298.47004838
 10
241.7242258670012
 20
-9186.25375631
 10
243.3694401569992
 20
-9074.03746426
 10
245.0146551860016
 20
-8961.82117223
 10
246.6598709989994
 20
-8849.60488021
 10
248.3050876419984
 20
-8737.38858821
 10
249.9503051659995
 20
-8625.17229624
 10
251.5955236260015
 20
-8512.95600428
 10
253.2407430800013
 20
-8400.73971235
 10
254.8859635949993
 20
-8288.52342044
 10
256.531185238
 20
-8176.307128550001
 10
258.1764080889989
 20
-8064.090836700001
 10
259.8216322289991
 20
-7951.874544869999
 10
261.4668577509983
 20
-7839.65825307
 10
263.1120847560014
 20
-7727.44196131
 10
264.7573133529986
 20
-7615.225669579999
 10
266.4025436640004
 20
-7503.009377890001
 10
268.0477758250017
 20
-7390.793086239999
 10
269.6930099829988
 20
-7278.576794640001
 10
271.3382463050002
 20
-7166.360503079999
 10
272.983484974
 20
-7054.14421158
 10
274.6287261959988
 20
-6941.92792014
 10
276.2739702010003
 20
-6829.71162876
 10
277.9192172490002
 20
-6717.49533745
 10
279.5644676320007
 20
-6605.27904621
 10
281.2097216799993
 20
-6493.06275506
 10
282.8549797689993
 20
-6380.846463990001
 10
284.5002423289989
 20
-6268.63017303
 10
286.1455098519982
 20
-6156.413882180001
 10
287.7907829050018
 20
-6044.19759145
 10
289.4360621449996
 20
-5931.981300859999
 10
291.0813483380007
 20
-5819.765010430001
 10
292.7266423809997
 20
-5707.548720179999
 10
294.3719453330013
 20
-5595.33243013
 10
296.0172584520005
 20
-5483.116140300001
 10
297.6625832450009
 20
-5370.899850739999
 10
299.3079215299986
 20
-5258.683561490001
 10
300.9532755270011
 20
-5146.467272580001
 10
302.5986479679996
 20
-5034.250984099999
 10
304.2440422590007
 20
-4922.0346961
 10
305.8894626990004
 20
-4809.81840869
 10
307.5349147929992
 20
-4697.602122
 10
309.1804057090012
 20
-4585.385836180001
  0
ENDBLK
  5
338
330
334
100
AcDbEntity
  8
0
100
AcDbBlockEnd
  0
BLOCK
  5
33C
330
339
100
AcDbEntity
  8
0
100
AcDbBlockBegin
  2
#POLYLINE(123)
 70
     0
 10
0.0
 20
0.0
 30
0.0
  3
#POLYLINE(123)
  1
#POLYLINE(123)
  0
LWPOLYLINE
  5
33A
330
339
100
AcDbEntity
  8
main_beam_width
100
AcDbPolyline
 90
      100
 70
     0
 43
0.0
 10
-51.83461551709843
 20
-15692.708703
 10
-48.42412759349827
 20
-15580.5106055
 10
-45.01363975090135
 20
-15468.3125079
 10
-41.60315199170145
 20
-15356.1144103
 10
-38.19266431809956
 20
-15243.9163127
 10
-34.7821767325986
 20
-15131.7182152
 10
-31.37168923759964
 20
-15019.5201176
 10
-27.96120183570019
 20
-14907.32202
 10
-24.55071452950142
 20
-14795.1239224
 10
-21.14022732200101
 20
-14682.9258248
 10
-17.72974021589835
 20
-14570.7277272
 10
-14.31925321430026
 20
-14458.5296296
 10
-10.90876632020081
 20
-14346.331532
 10
-7.49827953707063
 20
-14234.1334344
 10
-4.087792868118413
 20
-14121.9353368
 10
-0.6773063169348461
 20
-14009.7372392
 10
2.733180112831178
 20
-13897.5391416
 10
6.143666417330678
 20
-13785.341044
 10
9.554152592598257
 20
-13673.1429464
 10
12.96463863450117
 20
-13560.9448488
 10
16.37512453860109
 20
-13448.7467512
 10
19.78561030049968
 20
-13336.5486536
 10
23.19609591530025
 20
-13224.3505559
 10
26.60658137829887
 20
-13112.1524583
 10
30.01706668410043
 20
-12999.9543607
 10
33.42755182749897
 20
-12887.756263
 10
36.83803680260098
 20
-12775.5581654
 10
40.24852160369846
 20
-12663.3600678
 10
43.65900622459958
 20
-12551.1619701
 10
47.06949065859953
 20
-12438.9638725
 10
50.47997489909903
 20
-12326.7657748
 10
53.89045893880029
 20
-12214.5676772
 10
57.30094277030003
 20
-12102.3695795
 10
60.71142638570018
 20
-11990.1714818
 10
64.12190977669889
 20
-11877.9733841
 10
67.53239293449951
 20
-11765.7752865
 10
70.9428758501017
 20
-11653.5771888
 10
74.3533585137011
 20
-11541.3790911
 10
77.76384091510045
 20
-11429.1809934
 10
81.17432304369868
 20
-11316.9828957
 10
84.58480488810164
 20
-11204.784798
 10
87.99528643630038
 20
-11092.5867003
 10
91.40576767559833
 20
-10980.3886025
 10
94.81624859280055
 20
-10868.1905048
 10
98.22672917359887
 20
-10755.9924071
 10
101.6372094030012
 20
-10643.7943093
 10
105.0476892650004
 20
-10531.5962116
 10
108.458168743
 20
-10419.3981138
 10
111.8686478189993
 20
-10307.200016
 10
115.2791264740008
 20
-10195.0019183
 10
118.6896046869988
 20
-10082.8038205
 10
122.1000824369985
 20
-9970.60572266
 10
125.5105597000002
 20
-9858.40762485
 10
128.9210364540013
 20
-9746.20952703
 10
132.3315126689995
 20
-9634.01142919
 10
135.7419883199982
 20
-9521.81333134
 10
139.1524633750014
 20
-9409.61523348
 10
142.5629378029989
 20
-9297.4171356
 10
145.9734115680003
 20
-9185.21903771
 10
149.383884633
 20
-9073.0209398
 10
152.7943569579984
 20
-8960.82284188
 10
156.2048284999983
 20
-8848.62474394
 10
159.6152992120005
 20
-8736.42664598
 10
163.0257690430008
 20
-8624.228548
 10
166.436237938
 20
-8512.03045
 10
169.8467058390015
 20
-8399.83235197
 10
173.2571726809983
 20
-8287.63425393
 10
176.6676383929989
 20
-8175.43615585
 10
180.0781028979982
 20
-8063.238057750001
 10
183.4885661139997
 20
-7951.03995962
 10
186.8990279479985
 20
-7838.84186146
 10
190.3094883010017
 20
-7726.64376327
 10
193.7199470609994
 20
-7614.445665039999
 10
197.1304041059993
 20
-7502.24756677
 10
200.5408593030006
 20
-7390.04946846
 10
203.9513125029989
 20
-7277.85137011
 10
207.3617635390001
 20
-7165.65327171
 10
210.7722122279993
 20
-7053.45517325
 10
214.182658365
 20
-6941.257074739999
 10
217.5931017190014
 20
-6829.05897616
 10
221.0035420310014
 20
-6716.86087751
 10
224.4139790080008
 20
-6604.66277879
 10
227.8244123209988
 20
-6492.46467999
 10
231.2348415939996
 20
-6380.266581100001
 10
234.6452663960008
 20
-6268.0684821
 10
238.055686235999
 20
-6155.870383000001
 10
241.4661005470007
 20
-6043.67228377
 10
244.8765086710009
 20
-5931.4741844
 10
248.2869098439987
 20
-5819.27608487
 10
251.6973031669986
 20
-5707.077985169999
 10
255.1076875830004
 20
-5594.879885260001
 10
258.5180618330014
 20
-5482.68178513
 10
261.9284244109986
 20
-5370.483684729999
 10
265.3387734979988
 20
-5258.28558403
 10
268.7491068759991
 20
-5146.08748298
 10
272.1594218110004
 20
-5033.88938151
 10
275.5697149000007
 20
-4921.691279549999
 10
278.9799818419997
 20
-4809.493177
 10
282.3902171340014
 20
-4697.29507373
 10
285.8004136070012
 20
-4585.096969599999
  0
ENDBLK
  5
33D
330
339
100
AcDbEntity
  8
0
100
AcDbBlockEnd
  0
BLOCK
  5
341
330
33E
100
AcDbEntity
  8
0
100
AcDbBlockBegin
  2
#POLYLINE(124)
 70
     0
 10
0.0
 20
0.0
 30
0.0
  3
#POLYLINE(124)
  1
#POLYLINE(124)
  0
LWPOLYLINE
  5
33F
330
33E
100
AcDbEntity
  8
main_beam_width
100
AcDbPolyline
 90
      100
 70
     0
 43
0.0
 10
146.3023864899988
 20
-15694.7987085
 10
147.9475859179984
 20
-15582.5824161
 10
149.5927854280017
 20
-15470.3661237
 10
151.2379850209982
 20
-15358.1498314
 10
152.8831846989997
 20
-15245.933539
 10
154.5283844660007
 20
-15133.7172466
 10
156.1735843230017
 20
-15021.5009542
 10
157.8187842730003
 20
-14909.2846618
 10
159.4639843190016
 20
-14797.0683695
 10
161.1091844629991
 20
-14684.8520771
 10
162.7543847089983
 20
-14572.6357847
 10
164.3995850600004
 20
-14460.4194924
 10
166.0447855179991
 20
-14348.2032
 10
167.6899860869999
 20
-14235.9869077
 10
169.3351867700003
 20
-14123.7706153
 10
170.9803875709986
 20
-14011.5543229
 10
172.6255884940001
 20
-13899.3380306
 10
174.2707895409985
 20
-13787.1217382
 10
175.9159907180001
 20
-13674.9054459
 10
177.5611920289994
 20
-13562.6891536
 10
179.2063934770013
 20
-13450.4728612
 10
180.8515950670007
 20
-13338.2565689
 10
182.4967968050005
 20
-13226.0402765
 10
184.1419986940018
 20
-13113.8239842
 10
185.7872007410006
 20
-13001.6076919
 10
187.4324029499985
 20
-12889.3913996
 10
189.0776053269983
 20
-12777.1751073
 10
190.7228078789994
 20
-12664.9588149
 10
192.3680106110005
 20
-12552.7425226
 10
194.0132135290005
 20
-12440.5262303
 10
195.6584166409993
 20
-12328.309938
 10
197.3036199540002
 20
-12216.0936457
 10
198.9488234749988
 20
-12103.8773534
 10
200.5940272129992
 20
-11991.6610611
 10
202.2392311750009
 20
-11879.4447689
 10
203.8844353700006
 20
-11767.2284766
 10
205.5296398069986
 20
-11655.0121843
 10
207.1748444959994
 20
-11542.795892
 10
208.8200494480006
 20
-11430.5795998
 10
210.465254671999
 20
-11318.3633075
 10
212.1104601810002
 20
-11206.1470153
 10
213.7556659859983
 20
-11093.930723
 10
215.4008720989987
 20
-10981.7144308
 10
217.0460785350006
 20
-10869.4981386
 10
218.6912853079994
 20
-10757.2818464
 10
220.3364924320013
 20
-10645.0655541
 10
221.9816999229988
 20
-10532.8492619
 10
223.626907799
 20
-10420.6329697
 10
225.2721160760011
 20
-10308.4166776
 10
226.9173247750005
 20
-10196.2003854
 10
228.5625339159997
 20
-10083.9840932
 10
230.2077435200008
 20
-9971.76780106
 10
231.8529536099995
 20
-9859.55150892
 10
233.4981642099992
 20
-9747.33521678
 10
235.1433753489982
 20
-9635.11892466
 10
236.7885870520004
 20
-9522.90263255
 10
238.4337993510017
 20
-9410.68634046
 10
240.0790122780018
 20
-9298.47004838
 10
241.7242258670012
 20
-9186.25375631
 10
243.3694401569992
 20
-9074.03746426
 10
245.0146551860016
 20
-8961.82117223
 10
246.6598709989994
 20
-8849.60488021
 10
248.3050876419984
 20
-8737.38858821
 10
249.9503051659995
 20
-8625.17229624
 10
251.5955236260015
 20
-8512.95600428
 10
253.2407430810017
 20
-8400.73971235
 10
254.8859635949993
 20
-8288.52342044
 10
256.531185238
 20
-8176.307128550001
 10
258.1764080889989
 20
-8064.090836700001
 10
259.8216322289991
 20
-7951.874544869999
 10
261.4668577509983
 20
-7839.65825307
 10
263.1120847560014
 20
-7727.44196131
 10
264.7573133529986
 20
-7615.225669579999
 10
266.4025436640004
 20
-7503.009377890001
 10
268.0477758250017
 20
-7390.793086239999
 10
269.6930099829988
 20
-7278.576794640001
 10
271.3382463050002
 20
-7166.360503079999
 10
272.983484974
 20
-7054.14421158
 10
274.6287261959988
 20
-6941.92792014
 10
276.2739702010003
 20
-6829.71162876
 10
277.9192172500007
 20
-6717.49533745
 10
279.5644676320007
 20
-6605.27904621
 10
281.2097216799993
 20
-6493.06275506
 10
282.8549797689993
 20
-6380.846463990001
 10
284.5002423289989
 20
-6268.63017303
 10
286.1455098519982
 20
-6156.413882180001
 10
287.7907829050018
 20
-6044.19759145
 10
289.4360621449996
 20
-5931.981300859999
 10
291.0813483380007
 20
-5819.765010430001
 10
292.7266423809997
 20
-5707.548720179999
 10
294.3719453330013
 20
-5595.33243013
 10
296.0172584520005
 20
-5483.116140300001
 10
297.6625832450009
 20
-5370.899850739999
 10
299.3079215299986
 20
-5258.683561490001
 10
300.9532755270011
 20
-5146.467272580001
 10
302.5986479679996
 20
-5034.250984099999
 10
304.2440422590007
 20
-4922.0346961
 10
305.8894626990004
 20
-4809.81840869
 10
307.5349147929992
 20
-4697.602122
 10
309.1804057090012
 20
-4585.385836180001
  0
ENDBLK
  5
342
330
33E
100
AcDbEntity
  8
0
100
AcDbBlockEnd
  0
BLOCK
  5
346
330
343
100
AcDbEntity
  8
0
100
AcDbBlockBegin
  2
#POLYLINE(125)
 70
     0
 10
0.0
 20
0.0
 30
0.0
  3
#POLYLINE(125)
  1
#POLYLINE(125)
  0
LWPOLYLINE
  5
344
330
343
100
AcDbEntity
  8
main_beam_width
100
AcDbPolyline
 90
      100
 70
     0
 43
0.0
 10
-51.83461551709843
 20
-15692.708703
 10
-48.42412759340004
 20
-15580.5106055
 10
-45.01363975079948
 20
-15468.3125079
 10
-41.60315199159959
 20
-15356.1144103
 10
-38.19266431800133
 20
-15243.9163127
 10
-34.78217673250037
 20
-15131.7182152
 10
-31.37168923750141
 20
-15019.5201176
 10
-27.96120183559833
 20
-14907.32202
 10
-24.55071452939956
 20
-14795.1239224
 10
-21.14022732189915
 20
-14682.9258248
 10
-17.72974021580012
 20
-14570.7277272
 10
-14.3192532141984
 20
-14458.5296296
 10
-10.90876632020081
 20
-14346.331532
 10
-7.498279536990594
 20
-14234.1334344
 10
-4.087792868038377
 20
-14121.9353368
 10
-0.6773063168548106
 20
-14009.7372392
 10
2.7331801129003
 20
-13897.5391416
 10
6.143666417410714
 20
-13785.341044
 10
9.554152592678292
 20
-13673.1429464
 10
12.96463863450117
 20
-13560.9448488
 10
16.37512453869931
 20
-13448.7467512
 10
19.78561030060155
 20
-13336.5486536
 10
23.19609591539847
 20
-13224.3505559
 10
26.60658137840073
 20
-13112.1524583
 10
30.01706668419865
 20
-12999.9543607
 10
33.42755182749897
 20
-12887.756263
 10
36.83803680269921
 20
-12775.5581654
 10
40.24852160380033
 20
-12663.3600678
 10
43.65900622459958
 20
-12551.1619701
 10
47.0694906587014
 20
-12438.9638725
 10
50.4799748992009
 20
-12326.7657748
 10
53.89045893889852
 20
-12214.5676772
 10
57.30094277039825
 20
-12102.3695795
 10
60.7114263857984
 20
-11990.1714818
 10
64.12190977680075
 20
-11877.9733841
 10
67.53239293460138
 20
-11765.7752865
 10
70.94287585019993
 20
-11653.5771888
 10
74.3533585137011
 20
-11541.3790911
 10
77.76384091519867
 20
-11429.1809934
 10
81.17432304380054
 20
-11316.9828957
 10
84.58480488819987
 20
-11204.784798
 10
87.99528643630038
 20
-11092.5867003
 10
91.40576767570019
 20
-10980.3886025
 10
94.81624859289877
 20
-10868.1905048
 10
98.22672917370073
 20
-10755.9924071
 10
101.6372094030012
 20
-10643.7943093
 10
105.0476892650004
 20
-10531.5962116
 10
108.458168743
 20
-10419.3981138
 10
111.8686478189993
 20
-10307.200016
 10
115.2791264740008
 20
-10195.0019183
 10
118.6896046869988
 20
-10082.8038205
 10
122.1000824369985
 20
-9970.60572266
 10
125.5105597010006
 20
-9858.40762485
 10
128.9210364540013
 20
-9746.20952703
 10
132.3315126689995
 20
-9634.01142919
 10
135.7419883199982
 20
-9521.81333134
 10
139.1524633750014
 20
-9409.61523348
 10
142.5629378029989
 20
-9297.4171356
 10
145.9734115680003
 20
-9185.21903771
 10
149.383884633
 20
-9073.0209398
 10
152.7943569579984
 20
-8960.82284188
 10
156.2048284999983
 20
-8848.62474394
 10
159.6152992120005
 20
-8736.42664598
 10
163.0257690430008
 20
-8624.228548
 10
166.436237938
 20
-8512.03045
 10
169.8467058390015
 20
-8399.83235197
 10
173.2571726809983
 20
-8287.63425393
 10
176.6676383929989
 20
-8175.43615585
 10
180.0781028979982
 20
-8063.238057750001
 10
183.4885661139997
 20
-7951.03995962
 10
186.8990279479985
 20
-7838.84186146
 10
190.3094883010017
 20
-7726.64376327
 10
193.7199470609994
 20
-7614.445665039999
 10
197.1304041059993
 20
-7502.24756677
 10
200.5408593030006
 20
-7390.04946846
 10
203.9513125029989
 20
-7277.85137011
 10
207.3617635390001
 20
-7165.65327171
 10
210.7722122279993
 20
-7053.45517325
 10
214.182658365
 20
-6941.257074739999
 10
217.5931017190014
 20
-6829.05897616
 10
221.0035420310014
 20
-6716.86087751
 10
224.4139790080008
 20
-6604.66277879
 10
227.8244123209988
 20
-6492.46467999
 10
231.2348415939996
 20
-6380.266581100001
 10
234.6452663960008
 20
-6268.0684821
 10
238.055686235999
 20
-6155.870383000001
 10
241.4661005470007
 20
-6043.67228377
 10
244.8765086710009
 20
-5931.4741844
 10
248.2869098439987
 20
-5819.27608487
 10
251.6973031669986
 20
-5707.077985169999
 10
255.1076875830004
 20
-5594.879885260001
 10
258.5180618330014
 20
-5482.68178513
 10
261.9284244109986
 20
-5370.483684729999
 10
265.3387734979988
 20
-5258.28558403
 10
268.7491068759991
 20
-5146.08748298
 10
272.1594218110004
 20
-5033.88938151
 10
275.5697149000007
 20
-4921.691279549999
 10
278.9799818419997
 20
-4809.493177
 10
282.3902171340014
 20
-4697.29507373
 10
285.8004136070012
 20
-4585.096969599999
  0
ENDBLK
  5
347
330
343
100
AcDbEntity
  8
0
100
AcDbBlockEnd
  0
BLOCK
  5
34B
330
348
100
AcDbEntity
  8
0
100
AcDbBlockBegin
  2
#POLYLINE(126)
 70
     0
 10
0.0
 20
0.0
 30
0.0
  3
#POLYLINE(126)
  1
#POLYLINE(126)
  0
LWPOLYLINE
  5
349
330
348
100
AcDbEntity
  8
main_beam_width
100
AcDbPolyline
 90
       10
 70
     0
 43
0.0
 10
26357.1574804
 20
78.63429127090058
 10
26340.4830883
 20
78.63025308720171
 10
26323.8086961
 20
78.62621490539823
 10
26307.1343039
 20
78.62217672559927
 10
26290.4599118
 20
78.61813854780121
 10
26273.78551959999
 20
78.6141003720004
 10
26257.1111274
 20
78.6100621980986
 10
26240.43673530001
 20
78.60602402620134
 10
26223.7623431
 20
78.60198585630133
 10
26207.0879509
 20
78.59794768830034
  0
ENDBLK
  5
34C
330
348
100
AcDbEntity
  8
0
100
AcDbBlockEnd
  0
BLOCK
  5
350
330
34D
100
AcDbEntity
  8
0
100
AcDbBlockBegin
  2
#POLYLINE(127)
 70
     0
 10
0.0
 20
0.0
 30
0.0
  3
#POLYLINE(127)
  1
#POLYLINE(127)
  0
LWPOLYLINE
  5
34E
330
34D
100
AcDbEntity
  8
main_beam_width
100
AcDbPolyline
 90
       10
 70
     0
 43
0.0
 10
26357.0745642
 20
-111.3957608640012
 10
26340.4163324
 20
-111.4026875320014
 10
26323.7581007
 20
-111.4096142009985
 10
26307.0998689
 20
-111.4165408730005
 10
26290.4416371
 20
-111.4234675459993
 10
26273.7834054
 20
-111.4303942219994
 10
26257.1251736
 20
-111.437320899
 10
26240.4669419
 20
-111.4442475780015
 10
26223.8087101
 20
-111.4511742600007
 10
26207.1504783
 20
-111.4581009430003
  0
ENDBLK
  5
351
330
34D
100
AcDbEntity
  8
0
100
AcDbBlockEnd
  0
BLOCK
  5
355
330
352
100
AcDbEntity
  8
0
100
AcDbBlockBegin
  2
#POLYLINE(128)
 70
     0
 10
0.0
 20
0.0
 30
0.0
  3
#POLYLINE(128)
  1
#POLYLINE(128)
  0
LWPOLYLINE
  5
353
330
352
100
AcDbEntity
  8
main_beam_width
100
AcDbPolyline
 90
       10
 70
     0
 43
0.0
 10
-19462.0732938
 20
214.6845476730014
 10
-17821.8984304
 20
219.378988198001
 10
-16181.72354
 20
224.0639261299984
 10
-14541.5486224
 20
228.7392926139983
 10
-12901.3736775
 20
233.4050412649995
 10
-11261.1987052
 20
238.0611487269998
 10
-9621.02370563
 20
242.7076149439999
 10
-7980.8486787
 20
247.3444631710008
 10
-6340.673624610001
 20
251.9717396870001
 10
-4700.49854353
 20
256.5895132449987
  0
ENDBLK
  5
356
330
352
100
AcDbEntity
  8
0
100
AcDbBlockEnd
  0
BLOCK
  5
35A
330
357
100
AcDbEntity
  8
0
100
AcDbBlockBegin
  2
#POLYLINE(129)
 70
     0
 10
0.0
 20
0.0
 30
0.0
  3
#POLYLINE(129)
  1
#POLYLINE(129)
  0
LWPOLYLINE
  5
358
330
357
100
AcDbEntity
  8
main_beam_width
100
AcDbPolyline
 90
       10
 70
     0
 43
0.0
 10
-19462.141608
 20
238.7492304859989
 10
-17821.9937123
 20
243.3668843150008
 10
-16181.8458437
 20
247.9940404209992
 10
-14541.6980022
 20
252.6307676569995
 10
-12901.550188
 20
257.2771124030005
 10
-11261.4024011
 20
261.9330980199993
 10
-9621.254641669999
 20
266.5987245620017
 10
-7981.106909499998
 20
271.2739687799985
 10
-6340.95920451
 20
275.9587843980007
 10
-4700.811526500001
 20
280.6531026689991
  0
ENDBLK
  5
35B
330
357
100
AcDbEntity
  8
0
100
AcDbBlockEnd
  0
BLOCK
  5
35F
330
35C
100
AcDbEntity
  8
0
100
AcDbBlockBegin
  2
#POLYLINE(130)
 70
     0
 10
0.0
 20
0.0
 30
0.0
  3
#POLYLINE(130)
  1
#POLYLINE(130)
  0
LWPOLYLINE
  5
35D
330
35C
100
AcDbEntity
  8
main_beam_width
100
AcDbPolyline
 90
       10
 70
     0
 43
0.0
 10
-72.61190499129953
 20
-185.3313668769988
 10
-70.30288679110163
 20
-1908.37329815
 10
-67.99388790949888
 20
-3631.415229449998
 10
-65.6849082564986
 20
-5354.457160779999
 10
-63.37594774259924
 20
-7077.49909214
 10
-61.0670062788995
 20
-8800.54102352
 10
-58.75808377689827
 20
-10523.5829549
 10
-56.44918014880022
 20
-12246.6248864
 10
-54.14029530719927
 20
-13969.6668178
 10
-51.83142916539873
 20
-15692.7087493
  0
ENDBLK
  5
360
330
35C
100
AcDbEntity
  8
0
100
AcDbBlockEnd
  0
BLOCK
  5
364
330
361
100
AcDbEntity
  8
0
100
AcDbBlockBegin
  2
#POLYLINE(131)
 70
     0
 10
0.0
 20
0.0
 30
0.0
  3
#POLYLINE(131)
  1
#POLYLINE(131)
  0
LWPOLYLINE
  5
362
330
361
100
AcDbEntity
  8
main_beam_width
100
AcDbPolyline
 90
       10
 70
     0
 43
0.0
 10
122.4843409040004
 20
9.13410161757929
 10
125.1314063550017
 20
-1735.7473264
 10
127.7784916269993
 20
-3480.628754400001
 10
130.4255966259989
 20
-5225.51018236
 10
133.0727212589991
 20
-6970.391610300001
 10
135.7198654339991
 20
-8715.27303821
 10
138.3670290580012
 20
-10460.1544661
 10
141.0142120419987
 20
-12205.0358939
 10
143.6614142930011
 20
-13949.9173218
 10
146.3086357220018
 20
-15694.7987496
  0
ENDBLK
  5
365
330
361
100
AcDbEntity
  8
0
100
AcDbBlockEnd
  0
BLOCK
  5
369
330
366
100
AcDbEntity
  8
0
100
AcDbBlockBegin
  2
#POLYLINE(132)
 70
     0
 10
0.0
 20
0.0
 30
0.0
  3
#POLYLINE(132)
  1
#POLYLINE(132)
  0
LWPOLYLINE
  5
367
330
366
100
AcDbEntity
  8
main_beam_width
100
AcDbPolyline
 90
       10
 70
     0
 43
0.0
 10
-97.48713417339968
 20
-97.44367770000099
 10
-87.7084846045982
 20
-100.2169210440006
 10
-77.92983503580035
 20
-102.9901643880003
 10
-68.15118546710073
 20
-105.7634077319999
 10
-58.37253589840111
 20
-108.5366510759995
 10
-48.59388632979972
 20
-111.3098944209996
 10
-38.81523676119832
 20
-114.0831377649993
 10
-29.03658719269879
 20
-116.8563811099993
 10
-19.25793762419926
 20
-119.6296244549994
 10
-9.479288055750658
 20
-122.4028677999995
  0
ENDBLK
  5
36A
330
366
100
AcDbEntity
  8
0
100
AcDbBlockEnd
  0
BLOCK
  5
36E
330
36B
100
AcDbEntity
  8
0
100
AcDbBlockBegin
  2
#POLYLINE(133)
 70
     0
 10
0.0
 20
0.0
 30
0.0
  3
#POLYLINE(133)
  1
#POLYLINE(133)
  0
LWPOLYLINE
  5
36C
330
36B
100
AcDbEntity
  8
main_beam_width
100
AcDbPolyline
 90
       10
 70
     0
 43
0.0
 10
97.48174139259936
 20
97.43828732319889
 10
107.3067308419995
 20
94.65085014070064
 10
117.131720292
 20
91.86341295839884
 10
126.9567097420004
 20
89.07597577630077
 10
136.7816991920008
 20
86.28853859430092
 10
146.6066886420012
 20
83.50110141250116
 10
156.4316780920017
 20
80.71366423090149
 10
166.2566675419985
 20
77.92622704940004
 10
176.0816569929993
 20
75.13878986809868
 10
185.9066464429998
 20
72.35135268700105
  0
ENDBLK
  5
36F
330
36B
100
AcDbEntity
  8
0
100
AcDbBlockEnd
  0
BLOCK
  5
3B6
330
3B3
100
AcDbEntity
  8
0
100
AcDbBlockBegin
  2
#POLYLINE(134)
 70
     0
 10
0.0
 20
0.0
 30
0.0
  3
#POLYLINE(134)
  1
#POLYLINE(134)
  0
LWPOLYLINE
  5
3B4
330
3B3
100
AcDbEntity
  8
Mirrors
100
AcDbPolyline
 90
       59
 70
     0
 43
0.0
 10
-24525.9066422
 20
340.2564218959997
 10
-24526.0188445
 20
338.5359279689983
 10
-24526.1308334
 20
336.8154208880005
 10
-24526.2426091
 20
335.0949006519986
 10
-24526.3541714
 20
333.3743672609999
 10
-24526.4655205
 20
331.6538207160011
 10
-24526.5766562
 20
329.9332610169986
 10
-24526.6875786
 20
328.2126881619988
 10
-24526.7982877
 20
326.4921021539994
 10
-24526.9087835
 20
324.7715029909996
 10
-24527.019066
 20
323.0508906739997
 10
-24527.1291352
 20
321.3302652019993
 10
-24527.238991
 20
319.6096265759988
 10
-24527.3486336
 20
317.8889747950016
 10
-24527.4580628
 20
316.1683098600006
 10
-24527.5672788
 20
314.4476317709996
 10
-24527.6762814
 20
312.7269405270017
 10
-24527.7850707
 20
311.0062361290002
 10
-24527.8936467
 20
309.2855185760018
 10
-24528.0020094
 20
307.5647878700001
 10
-24528.1101588
 20
305.8440440080012
 10
-24528.2180949
 20
304.1232869929991
 10
-24528.3258177
 20
302.402516823
 10
-24528.4333271
 20
300.681733499001
 10
-24528.5406233
 20
298.9609370200014
 10
-24528.6477062
 20
297.2401273869982
 10
-24528.7545757
 20
295.5193045999986
 10
-24528.8612319
 20
293.7984686589989
 10
-24528.9676749
 20
292.0776195629987
 10
-24529.0739045
 20
290.3567573129985
 10
-24529.1799208
 20
288.6358819080015
 10
-24529.2857238
 20
286.9149933500012
 10
-24529.3913135
 20
285.1940916370004
 10
-24529.4966899
 20
283.4731767689991
 10
-24529.601853
 20
281.7522487479982
 10
-24529.7068028
 20
280.0313075710001
 10
-24529.8115392
 20
278.3103532409987
 10
-24529.9160624
 20
276.5893857560004
 10
-24530.0203723
 20
274.8684051169985
 10
-24530.1244688
 20
273.1474113240001
 10
-24530.228352
 20
271.4264043760013
 10
-24530.332022
 20
269.7053842739988
 10
-24530.4354786
 20
267.9843510179999
 10
-24530.5387219
 20
266.2633046070005
 10
-24530.6417519
 20
264.542245042001
 10
-24530.7445686
 20
262.8211723220011
 10
-24530.847172
 20
261.1000864490015
 10
-24530.949562
 20
259.3789874200011
 10
-24531.0517388
 20
257.6578752370006
 10
-24531.1537023
 20
255.9367499
 10
-24531.2554524
 20
254.2156114089994
 10
-24531.3569892
 20
252.4944597629983
 10
-24531.4583128
 20
250.7732949620004
 10
-24531.559423
 20
249.0521170069987
 10
-24531.6603199
 20
247.3309258980007
 10
-24531.7610035
 20
245.6097216339986
 10
-24531.8614738
 20
243.8885042149996
 10
-24531.9617307
 20
242.1672736420005
 10
-24532.0617744
 20
240.446029914001
  0
ENDBLK
  5
3B7
330
3B3
100
AcDbEntity
  8
0
100
AcDbBlockEnd
  0
BLOCK
  5
3BF
330
3BC
100
AcDbEntity
  8
0
100
AcDbBlockBegin
  2
#POLYLINE(135)
 70
     0
 10
0.0
 20
0.0
 30
0.0
  3
#POLYLINE(135)
  1
#POLYLINE(135)
  0
LWPOLYLINE
  5
3BD
330
3BC
100
AcDbEntity
  8
Mirrors
100
AcDbPolyline
 90
       59
 70
     0
 43
0.0
 10
-21347.5277383
 20
-112.2969634760011
 10
-21347.4143065
 20
-110.5765349300018
 10
-21347.3005436
 20
-108.8561300459987
 10
-21347.1864494
 20
-107.1357488249996
 10
-21347.072024
 20
-105.4153912670008
 10
-21346.9572674
 20
-103.6950573719987
 10
-21346.8421797
 20
-101.9747471400005
 10
-21346.7267607
 20
-100.2544605699986
 10
-21346.6110106
 20
-98.53419766340085
 10
-21346.4949292
 20
-96.81395841910125
 10
-21346.3785167
 20
-95.0937428374018
 10
-21346.261773
 20
-93.37355091820064
 10
-21346.1446981
 20
-91.65338266139952
 10
-21346.0272919
 20
-89.93323806699846
 10
-21345.9095547
 20
-88.21311713500108
 10
-21345.7914862
 20
-86.49301986520004
 10
-21345.6730865
 20
-84.77294625779905
 10
-21345.5543556
 20
-83.05289631260166
 10
-21345.4352936
 20
-81.3328700296006
 10
-21345.3159004
 20
-79.6128674087995
 10
-21345.1961759
 20
-77.89288845010014
 10
-21345.0761203
 20
-76.17293315360075
 10
-21344.9557335
 20
-74.45300151919946
 10
-21344.8350156
 20
-72.73309354689991
 10
-21344.7139664
 20
-71.01320923660023
 10
-21344.5925861
 20
-69.29334858839866
 10
-21344.4708745
 20
-67.5735116022006
 10
-21344.3488318
 20
-65.85369827799877
 10
-21344.2264579
 20
-64.13390861589869
 10
-21344.1037528
 20
-62.41414261579848
 10
-21343.9807166
 20
-60.69440027770179
 10
-21343.8573491
 20
-58.97468160169956
 10
-21343.7336505
 20
-57.25498658759898
 10
-21343.6096207
 20
-55.53531523560014
 10
-21343.4852596
 20
-53.8156675456994
 10
-21343.3605675
 20
-52.09604351770031
 10
-21343.2355441
 20
-50.37644315190119
 10
-21343.1101895
 20
-48.6568664480983
 10
-21342.9845038
 20
-46.93731340649902
 10
-21342.8584868
 20
-45.21778402700147
 10
-21342.7321387
 20
-43.49827830959839
 10
-21342.6054594
 20
-41.77879625439891
 10
-21342.4784489
 20
-40.0593378613994
 10
-21342.3511072
 20
-38.33990313059985
 10
-21342.2234344
 20
-36.62049206220036
 10
-21342.0954303
 20
-34.90110465600083
 10
-21341.9670951
 20
-33.18174091220135
 10
-21341.8384286
 20
-31.46240083079829
 10
-21341.709431
 20
-29.74308441190078
 10
-21341.5801022
 20
-28.02379165539969
 10
-21341.4504422
 20
-26.30452256149874
 10
-21341.320451
 20
-24.58527713020158
 10
-21341.1901286
 20
-22.86605536159914
 10
-21341.059475
 20
-21.14685725560048
 10
-21340.9284902
 20
-19.42768281250028
 10
-21340.7971742
 20
-17.70853203220031
 10
-21340.665527
 20
-15.9894049147988
 10
-21340.5335486
 20
-14.27030146040124
 10
-21340.4012391
 20
-12.55122166900037
  0
ENDBLK
  5
3C0
330
3BC
100
AcDbEntity
  8
0
100
AcDbBlockEnd
  0
BLOCK
  5
3C8
330
3C5
100
AcDbEntity
  8
0
100
AcDbBlockBegin
  2
#POLYLINE(136)
 70
     0
 10
0.0
 20
0.0
 30
0.0
  3
#POLYLINE(136)
  1
#POLYLINE(136)
  0
LWPOLYLINE
  5
3C6
330
3C5
100
AcDbEntity
  8
Mirrors
100
AcDbPolyline
 90
       59
 70
     0
 43
0.0
 10
-27459.048
 20
26535.6196579
 10
-27460.7721379
 20
26535.6219293
 10
-27462.4962759
 20
26535.6241209
 10
-27464.2204138
 20
26535.6262328
 10
-27465.9445517
 20
26535.6282651
 10
-27467.6686897
 20
26535.6302176
 10
-27469.3928276
 20
26535.6320905
 10
-27471.1169655
 20
26535.6338836
 10
-27472.8411034
 20
26535.6355971
 10
-27474.5652414
 20
26535.6372308
 10
-27476.2893793
 20
26535.6387849
 10
-27478.0135172
 20
26535.6402593
 10
-27479.7376552
 20
26535.641654
 10
-27481.4617931
 20
26535.6429689
 10
-27483.185931
 20
26535.6442042
 10
-27484.910069
 20
26535.6453598
 10
-27486.6342069
 20
26535.6464357
 10
-27488.3583448
 20
26535.6474319
 10
-27490.0824828
 20
26535.64834839999
 10
-27491.8066207
 20
26535.6491852
 10
-27493.5307586
 20
26535.6499423
 10
-27495.2548966
 20
26535.6506197
 10
-27496.9790345
 20
26535.6512175
 10
-27498.7031724
 20
26535.6517355
 10
-27500.4273103
 20
26535.6521738
 10
-27502.1514483
 20
26535.6525324
 10
-27503.8755862
 20
26535.6528114
 10
-27505.5997241
 20
26535.6530106
 10
-27507.3238621
 20
26535.6531302
 10
-27509.048
 20
26535.65317
 10
-27510.7721379
 20
26535.6531302
 10
-27512.4962759
 20
26535.6530106
 10
-27514.2204138
 20
26535.6528114
 10
-27515.9445517
 20
26535.6525324
 10
-27517.6686897
 20
26535.6521738
 10
-27519.3928276
 20
26535.6517355
 10
-27521.1169655
 20
26535.6512175
 10
-27522.8411034
 20
26535.6506197
 10
-27524.5652414
 20
26535.6499423
 10
-27526.2893793
 20
26535.6491852
 10
-27528.0135172
 20
26535.64834839999
 10
-27529.7376552
 20
26535.6474319
 10
-27531.4617931
 20
26535.6464357
 10
-27533.185931
 20
26535.6453598
 10
-27534.910069
 20
26535.6442042
 10
-27536.6342069
 20
26535.6429689
 10
-27538.3583448
 20
26535.641654
 10
-27540.0824828
 20
26535.6402593
 10
-27541.8066207
 20
26535.6387849
 10
-27543.5307586
 20
26535.6372308
 10
-27545.2548966
 20
26535.6355971
 10
-27546.9790345
 20
26535.6338836
 10
-27548.7031724
 20
26535.6320905
 10
-27550.4273103
 20
26535.6302176
 10
-27552.1514483
 20
26535.6282651
 10
-27553.8755862
 20
26535.6262328
 10
-27555.5997241
 20
26535.6241209
 10
-27557.3238621
 20
26535.6219293
 10
-27559.048
 20
26535.6196579
  0
ENDBLK
  5
3C9
330
3C5
100
AcDbEntity
  8
0
100
AcDbBlockEnd
  0
BLOCK
  5
3DB
330
3D8
100
AcDbEntity
  8
0
100
AcDbBlockBegin
  2
#POLYLINE(137)
 70
     0
 10
0.0
 20
0.0
 30
0.0
  3
#POLYLINE(137)
  1
#POLYLINE(137)
  0
LWPOLYLINE
  5
3D9
330
3D8
100
AcDbEntity
  8
Mirrors
100
AcDbPolyline
 90
       59
 70
     0
 43
0.0
 10
-117.5905570729992
 20
23221.9789127
 10
-113.7974536250003
 20
23221.9786969
 10
-110.0043501770015
 20
23221.9784886
 10
-106.2112467279985
 20
23221.978288
 10
-102.4181432799996
 20
23221.9780949
 10
-98.6250398318989
 20
23221.9779093
 10
-94.83193638360171
 20
23221.9777314
 10
-91.03883293539911
 20
23221.977561
 10
-87.24572948709829
 20
23221.9773982
 10
-83.4526260388011
 20
23221.977243
 10
-79.65952259050027
 20
23221.9770953
 10
-75.86641914230131
 20
23221.9769552
 10
-72.07331569400048
 20
23221.9768227
 10
-68.28021224569966
 20
23221.9766978
 10
-64.48710879739883
 20
23221.9765804
 10
-60.69400534910164
 20
23221.9764706
 10
-56.90090190089904
 20
23221.9763684
 10
-53.10779845259822
 20
23221.9762737
 10
-49.31469500430103
 20
23221.9761866
 10
-45.5215915560002
 20
23221.9761071
 10
-41.72848810780124
 20
23221.9760352
 10
-37.93538465950041
 20
23221.97597079999
 10
-34.14228121119959
 20
23221.975914
 10
-30.34917776289876
 20
23221.9758648
 10
-26.5560743146998
 20
23221.97582310001
 10
-22.76297086639897
 20
23221.9757891
 10
-18.96986741810179
 20
23221.9757626
 10
-15.17676396980096
 20
23221.9757436
 10
-11.38366052159836
 20
23221.9757323
 10
-7.590557073290256
 20
23221.9757285
 10
-3.797453625011258
 20
23221.9757323
 10
-0.0043501767322596
 20
23221.9757436
 10
3.788753271539463
 20
23221.9757626
 10
7.581856719818461
 20
23221.9757891
 10
11.3749601681011
 20
23221.97582310001
 10
15.16806361639829
 20
23221.9758648
 10
18.96116706460089
 20
23221.975914
 10
22.75427051290171
 20
23221.97597079999
 10
26.5473739611989
 20
23221.9760352
 10
30.34047740949973
 20
23221.9761071
 10
34.13358085769869
 20
23221.9761866
 10
37.92668430599952
 20
23221.9762737
 10
41.71978775430034
 20
23221.9763684
 10
45.51289120260117
 20
23221.9764706
 10
49.30599465089836
 20
23221.9765804
 10
53.09909809910096
 20
23221.9766978
 10
56.89220154740178
 20
23221.9768227
 10
60.68530499569897
 20
23221.9769552
 10
64.4784084439998
 20
23221.9770953
 10
68.27151189219876
 20
23221.977243
 10
72.06461534049959
 20
23221.9773982
 10
75.85771878880041
 20
23221.977561
 10
79.65082223710124
 20
23221.9777314
 10
83.4439256853002
 20
23221.9779093
 10
87.23702913360103
 20
23221.9780949
 10
91.03013258189821
 20
23221.978288
 10
94.82323603019904
 20
23221.9784886
 10
98.61633947840164
 20
23221.9786969
 10
102.4094429270008
 20
23221.9789127
  0
ENDBLK
  5
3DC
330
3D8
100
AcDbEntity
  8
0
100
AcDbBlockEnd
  0
BLOCK
  5
3E4
330
3E1
100
AcDbEntity
  8
0
100
AcDbBlockBegin
  2
#POLYLINE(138)
 70
     0
 10
0.0
 20
0.0
 30
0.0
  3
#POLYLINE(138)
  1
#POLYLINE(138)
  0
LWPOLYLINE
  5
3E2
330
3E1
100
AcDbEntity
  8
Mirrors
100
AcDbPolyline
 90
       59
 70
     0
 43
0.0
 10
26507.1160223
 20
93.6192715094985
 10
26507.1158065
 20
89.82616806120132
 10
26507.1155983
 20
86.03306461290049
 10
26507.1153976
 20
82.23996116459966
 10
26507.1152045
 20
78.44685771629884
 10
26507.115019
 20
74.65375426809987
 10
26507.114841
 20
70.86065081979905
 10
26507.1146706
 20
67.06754737149822
 10
26507.1145078
 20
63.27444392320103
 10
26507.1143526
 20
59.48134047499843
 10
26507.1142049
 20
55.68823702670124
 10
26507.1140648
 20
51.89513357840042
 10
26507.1139323
 20
48.10203013009959
 10
26507.1138074
 20
44.30892668190063
 10
26507.11369
 20
40.5158232335998
 10
26507.1135802
 20
36.72271978529898
 10
26507.113478
 20
32.92961633700179
 10
26507.1133833
 20
29.13651288879919
 10
26507.1132962
 20
25.34340944049836
 10
26507.1132167
 20
21.55030599220117
 10
26507.1131448
 20
17.75720254390035
 10
26507.1130804
 20
13.96409909570139
 10
26507.1130236
 20
10.17099564740056
 10
26507.1129744
 20
6.377892199110647
 10
26507.1129328
 20
2.584788750831649
 10
26507.1128987
 20
-1.208314697440073
 10
26507.1128722
 20
-5.001418145719072
 10
26507.1128532
 20
-8.794521594001708
 10
26507.1128419
 20
-12.5876250422989
 10
26507.1128381
 20
-16.3807284905015
 10
26507.1128419
 20
-20.17383193879868
 10
26507.1128532
 20
-23.96693538709951
 10
26507.1128722
 20
-27.76003883540034
 10
26507.1128987
 20
-31.55314228370116
 10
26507.1129328
 20
-35.34624573190013
 10
26507.1129744
 20
-39.13934918020095
 10
26507.1130236
 20
-42.93245262850178
 10
26507.1130804
 20
-46.72555607679897
 10
26507.1131448
 20
-50.51865952500157
 10
26507.1132167
 20
-54.31176297329876
 10
26507.1132962
 20
-58.10486642159958
 10
26507.1133833
 20
-61.89796986990041
 10
26507.113478
 20
-65.69107331809937
 10
26507.1135802
 20
-69.4841767664002
 10
26507.11369
 20
-73.27728021470102
 10
26507.1138074
 20
-77.07038366299821
 10
26507.1139323
 20
-80.86348711120081
 10
26507.1140648
 20
-84.65659055950164
 10
26507.1142049
 20
-88.44969400779883
 10
26507.1143526
 20
-92.24279745609965
 10
26507.1145078
 20
-96.03590090429861
 10
26507.1146706
 20
-99.82900435259944
 10
26507.114841
 20
-103.6221078009985
 10
26507.115019
 20
-107.415211249001
 10
26507.1152045
 20
-111.2083146969999
 10
26507.1153976
 20
-115.0014181459992
 10
26507.1155983
 20
-118.7945215940017
 10
26507.1158065
 20
-122.5876250420006
 10
26507.1160223
 20
-126.3807284909999
  0
ENDBLK
  5
3E5
330
3E1
100
AcDbEntity
  8
0
100
AcDbBlockEnd
  0
BLOCK
  5
3ED
330
3EA
100
AcDbEntity
  8
0
100
AcDbBlockBegin
  2
#POLYLINE(139)
 70
     0
 10
0.0
 20
0.0
 30
0.0
  3
#POLYLINE(139)
  1
#POLYLINE(139)
  0
LWPOLYLINE
  5
3EB
330
3EA
100
AcDbEntity
  8
Mirrors
100
AcDbPolyline
 90
       59
 70
     0
 43
0.0
 10
-4696.51258241
 20
143.6648564269999
 10
-4696.740880109999
 20
147.9725964880017
 10
-4696.96312515
 20
152.2804152729987
 10
-4697.179318499999
 20
156.588312767999
 10
-4697.3894611
 20
160.8962889610011
 10
-4697.59355388
 20
165.2043438420005
 10
-4697.791597700001
 20
169.5124773969983
 10
-4697.9835934
 20
173.8206896170013
 10
-4698.16954178
 20
178.1289804910011
 10
-4698.349443610001
 20
182.4373500090005
 10
-4698.523299619999
 20
186.7457981609987
 10
-4698.691110510001
 20
191.0543249389993
 10
-4698.852876919998
 20
195.3629303330017
 10
-4699.008599500001
 20
199.671614335999
 10
-4699.158278819999
 20
203.9803769409991
 10
-4699.301915429998
 20
208.2892181390016
 10
-4699.43950986
 20
212.5981379250006
 10
-4699.571062579998
 20
216.9071362909999
 10
-4699.696574040001
 20
221.2162132330013
 10
-4699.81604464
 20
225.5253687440018
 10
-4699.929474770001
 20
229.8346028209999
 10
-4700.03686475
 20
234.1439154580003
 10
-4700.138214899998
 20
238.4533066510012
 10
-4700.233525470001
 20
242.7627763980017
 10
-4700.322796699998
 20
247.0723246960006
 10
-4700.406028789999
 20
251.3819515399991
 10
-4700.483221890001
 20
255.6916569310015
 10
-4700.55437613
 20
260.0014408649986
 10
-4700.619491600002
 20
264.3113033420013
 10
-4700.678568349998
 20
268.6212443609984
 10
-4700.731606400001
 20
272.9312639220007
 10
-4700.77860573
 20
277.2413620250009
 10
-4700.819566279999
 20
281.5515386709994
 10
-4700.854487979999
 20
285.8617938610005
 10
-4700.88337069
 20
290.1721275960008
 10
-4700.906214260001
 20
294.4825398790017
 10
-4700.92301848
 20
298.7930307120005
 10
-4700.933783140001
 20
303.1036000989989
 10
-4700.938507949999
 20
307.4142480420014
 10
-4700.937192630001
 20
311.724974544999
 10
-4700.92983682
 20
316.0357796140015
 10
-4700.916440159999
 20
320.3466632519994
 10
-4700.897002239999
 20
324.6576254659994
 10
-4700.871522609999
 20
328.9686662610002
 10
-4700.840000789998
 20
333.2797856430007
 10
-4700.802436270002
 20
337.5909836179999
 10
-4700.758828490001
 20
341.9022601949982
 10
-4700.709176870001
 20
346.2136153809988
 10
-4700.653480789999
 20
350.5250491830011
 10
-4700.591739579999
 20
354.8365616109986
 10
-4700.523952539999
 20
359.1481526729985
 10
-4700.450118959998
 20
363.4598223799985
 10
-4700.370238060001
 20
367.7715707399984
 10
-4700.284309039998
 20
372.0833977639995
 10
-4700.19233106
 20
376.3953034639999
 10
-4700.09430325
 20
380.7072878510007
 10
-4699.990224699999
 20
385.0193509359997
 10
-4699.880094460001
 20
389.3314927309984
 10
-4699.76391156
 20
393.643713251
  0
ENDBLK
  5
3EE
330
3EA
100
AcDbEntity
  8
0
100
AcDbBlockEnd
  0
BLOCK
  5
3F6
330
3F3
100
AcDbEntity
  8
0
100
AcDbBlockBegin
  2
#POLYLINE(140)
 70
     0
 10
0.0
 20
0.0
 30
0.0
  3
#POLYLINE(140)
  1
#POLYLINE(140)
  0
LWPOLYLINE
  5
3F4
330
3F3
100
AcDbEntity
  8
Mirrors
100
AcDbPolyline
 90
       59
 70
     0
 43
0.0
 10
-15764.8575635
 20
137.2103947739997
 10
-15764.8305436
 20
132.9000822480011
 10
-15764.802778
 20
128.5897780720006
 10
-15764.7742668
 20
124.2794822459982
 10
-15764.74501
 20
119.9691947710016
 10
-15764.7150076
 20
115.658915647
 10
-15764.6842595
 20
111.348644873
 10
-15764.6527658
 20
107.0383824490018
 10
-15764.6205265
 20
102.7281283759985
 10
-15764.5875416
 20
98.41788265369905
 10
-15764.553811
 20
94.10764528169966
 10
-15764.5193348
 20
89.79741626009854
 10
-15764.484113
 20
85.48719558889934
 10
-15764.4481456
 20
81.17698326820027
 10
-15764.4114326
 20
76.86677929780126
 10
-15764.3739739
 20
72.55658367789874
 10
-15764.3357697
 20
68.24639640829992
 10
-15764.2968198
 20
63.93621748909936
 10
-15764.2571243
 20
59.62604692030072
 10
-15764.2166832
 20
55.3158847017985
 10
-15764.1754965
 20
51.00573083370182
 10
-15764.1335642
 20
46.69558531579969
 10
-15764.0908863
 20
42.38544814840134
 10
-15764.0474627
 20
38.07531933120117
 10
-15764.0032936
 20
33.76519886439928
 10
-15763.9583788
 20
29.45508674790108
 10
-15763.9127185
 20
25.14498298169929
 10
-15763.8663125
 20
20.83488756580118
 10
-15763.8191609
 20
16.52480050019949
 10
-15763.7712638
 20
12.21472178490149
 10
-15763.722621
 20
7.904651419928996
 10
-15763.6732326
 20
3.594589405260194
 10
-15763.6230986
 20
-0.7154642591012816
 10
-15763.572219
 20
-5.025509573151794
 10
-15763.5205938
 20
-9.335546536891343
 10
-15763.4682229
 20
-13.64557515030174
 10
-15763.4151065
 20
-17.95559541340117
 10
-15763.3612445
 20
-22.26560732620055
 10
-15763.3066368
 20
-26.57561088860166
 10
-15763.2512836
 20
-30.88560610069908
 10
-15763.1951847
 20
-35.19559296250009
 10
-15763.1383402
 20
-39.50557147389918
 10
-15763.0807501
 20
-43.81554163499823
 10
-15763.0224144
 20
-48.125503445699
 10
-15762.9633331
 20
-52.43545690600149
 10
-15762.9035061
 20
-56.74540201589843
 10
-15762.8429336
 20
-61.05533877540074
 10
-15762.7816154
 20
-65.36526718450114
 10
-15762.7195516
 20
-69.67518724319962
 10
-15762.6567422
 20
-73.9850989514016
 10
-15762.5931872
 20
-78.29500230920166
 10
-15762.5288866
 20
-82.60489731650159
 10
-15762.4638403
 20
-86.91478397330138
 10
-15762.3980484
 20
-91.22466227960103
 10
-15762.3315109
 20
-95.53453223540055
 10
-15762.2642277
 20
-99.8443938406017
 10
-15762.196199
 20
-104.1542470950008
 10
-15762.1274245
 20
-108.4640919990015
 10
-15762.0579045
 20
-112.7739285530006
  0
ENDBLK
  5
3F7
330
3F3
100
AcDbEntity
  8
0
100
AcDbBlockEnd
  0
BLOCK
  5
3FF
330
3FC
100
AcDbEntity
  8
0
100
AcDbBlockBegin
  2
#POLYLINE(141)
 70
     0
 10
0.0
 20
0.0
 30
0.0
  3
#POLYLINE(141)
  1
#POLYLINE(141)
  0
LWPOLYLINE
  5
3FD
330
3FC
100
AcDbEntity
  8
Mirrors
100
AcDbPolyline
 90
       59
 70
     0
 43
0.0
 10
-19462.4452432
 20
351.7164338270013
 10
-19462.4341629
 20
347.4061030859993
 10
-19462.4230421
 20
343.0957724600012
 10
-19462.4118808
 20
338.7854419499999
 10
-19462.4006788
 20
334.4751115539984
 10
-19462.3894364
 20
330.1647812740011
 10
-19462.3781533
 20
325.8544511079999
 10
-19462.3668298
 20
321.5441210579993
 10
-19462.3554656
 20
317.2337911229988
 10
-19462.344061
 20
312.9234613029985
 10
-19462.3326157
 20
308.6131315979983
 10
-19462.3211299
 20
304.3028020079983
 10
-19462.3096036
 20
299.9924725339988
 10
-19462.2980367
 20
295.6821431739991
 10
-19462.2864292
 20
291.3718139299999
 10
-19462.2747812
 20
287.0614848010009
 10
-19462.2630926
 20
282.7511557869984
 10
-19462.2513635
 20
278.4408268879997
 10
-19462.2395939
 20
274.1304981040012
 10
-19462.2277836
 20
269.8201694349991
 10
-19462.2159329
 20
265.5098408810009
 10
-19462.2040415
 20
261.1995124429995
 10
-19462.1921096
 20
256.8891841199984
 10
-19462.1801372
 20
252.5788559110006
 10
-19462.1681242
 20
248.2685278179997
 10
-19462.1560706
 20
243.958199839999
 10
-19462.1439765
 20
239.6478719769984
 10
-19462.1318419
 20
235.3375442299985
 10
-19462.1196667
 20
231.0272165969982
 10
-19462.1074509
 20
226.7168890790017
 10
-19462.0951946
 20
222.4065616769985
 10
-19462.0828977
 20
218.0962343899992
 10
-19462.0705603
 20
213.7859072179999
 10
-19462.0581823
 20
209.4755801610008
 10
-19462.0457638
 20
205.1652532189983
 10
-19462.0333047
 20
200.8549263919995
 10
-19462.020805
 20
196.5445996800008
 10
-19462.0082648
 20
192.2342730839991
 10
-19461.9956841
 20
187.9239466020008
 10
-19461.9830628
 20
183.6136202359994
 10
-19461.9704009
 20
179.3032939850018
 10
-19461.9576985
 20
174.9929678490007
 10
-19461.9449555
 20
170.6826418279998
 10
-19461.932172
 20
166.372315921999
 10
-19461.9193479
 20
162.0619901319988
 10
-19461.9064833
 20
157.7516644559983
 10
-19461.8935781
 20
153.4413388959983
 10
-19461.8806323
 20
149.1310134509986
 10
-19461.867646
 20
144.8206881199985
 10
-19461.8546192
 20
140.5103629049991
 10
-19461.8415518
 20
136.2000378049997
 10
-19461.8284438
 20
131.889712821001
 10
-19461.8152953
 20
127.5793879509984
 10
-19461.8021063
 20
123.2690631959995
 10
-19461.7888766
 20
118.9587385570012
 10
-19461.7756065
 20
114.6484140329994
 10
-19461.7622957
 20
110.3380896240014
 10
-19461.7489445
 20
106.02776533
 10
-19461.7355526
 20
101.7174411509986
  0
ENDBLK
  5
400
330
3FC
100
AcDbEntity
  8
0
100
AcDbBlockEnd
  0
BLOCK
  5
408
330
405
100
AcDbEntity
  8
0
100
AcDbBlockBegin
  2
#POLYLINE(142)
 70
     0
 10
0.0
 20
0.0
 30
0.0
  3
#POLYLINE(142)
  1
#POLYLINE(142)
  0
LWPOLYLINE
  5
406
330
405
100
AcDbEntity
  8
Mirrors
100
AcDbPolyline
 90
       59
 70
     0
 43
0.0
 10
422.5136139700007
 20
-4584.192262119999
 10
418.2014063579991
 20
-4584.316406900001
 10
413.8892757719987
 20
-4584.43431728
 10
409.5772222000014
 20
-4584.54599434
 10
405.2652456270007
 20
-4584.65143912
 10
400.9533460419989
 20
-4584.750652610001
 10
396.6415234339984
 20
-4584.843635770001
 10
392.3297777900007
 20
-4584.930389500001
 10
388.0181091010018
 20
-4585.010914689999
 10
383.706517355
 20
-4585.08521218
 10
379.3950025429986
 20
-4585.15328275
 10
375.0835646550004
 20
-4585.215127179999
 10
370.7722036820014
 20
-4585.270746170001
 10
366.4609196169986
 20
-4585.320140420001
 10
362.1497124509988
 20
-4585.36331056
 10
357.8385821769989
 20
-4585.400257199999
 10
353.5275287879995
 20
-4585.430980900001
 10
349.216552277001
 20
-4585.455482180001
 10
344.9056526380009
 20
-4585.47376153
 10
340.5948298660005
 20
-4585.485819400001
 10
336.2840839550008
 20
-4585.4916562
 10
331.9734149020005
 20
-4585.491272290001
 10
327.662822702001
 20
-4585.48466801
 10
323.3523073510005
 20
-4585.471843650001
 10
319.0418688470018
 20
-4585.45279945
 10
314.7315071859994
 20
-4585.427535639999
 10
310.4212223670002
 20
-4585.396052389999
 10
306.1110143869992
 20
-4585.358349829999
 10
301.8008832470005
 20
-4585.314428059999
 10
297.4908289439991
 20
-4585.26428714
 10
293.1808514789991
 20
-4585.207927089999
 10
288.8709508520005
 20
-4585.14534789
 10
284.5611270640002
 20
-4585.076549490001
 10
280.2513801150017
 20
-4585.00153177
 10
275.9417100079991
 20
-4584.920294610001
 10
271.6321167450005
 20
-4584.83283784
 10
267.3226003279997
 20
-4584.739161239999
 10
263.0131607609983
 20
-4584.63926455
 10
258.7037980470013
 20
-4584.533147490001
 10
254.3945121889992
 20
-4584.42080973
 10
250.0853031939987
 20
-4584.302250889999
 10
245.7761710650011
 20
-4584.177470570001
 10
241.4671158089986
 20
-4584.046468320001
 10
237.1581374310008
 20
-4583.90924365
 10
232.8492359369993
 20
-4583.76579605
 10
228.5404113359982
 20
-4583.616124939999
 10
224.2316636329997
 20
-4583.46022972
 10
219.9229928380009
 20
-4583.29810976
 10
215.6143989580014
 20
-4583.129764360001
 10
211.3058820020015
 20
-4582.95519282
 10
206.9974419809987
 20
-4582.774394370001
 10
202.6890789030003
 20
-4582.587368209999
 10
198.3807927790003
 20
-4582.394113509999
 10
194.0725836199999
 20
-4582.19462939
 10
189.7644514370004
 20
-4581.98891493
 10
185.4563962419998
 20
-4581.77696918
 10
181.1484180469997
 20
-4581.558791150001
 10
176.8405168649988
 20
-4581.334379799999
 10
172.5326927089991
 20
-4581.10373406
  0
ENDBLK
  5
409
330
405
100
AcDbEntity
  8
0
100
AcDbBlockEnd
  0
BLOCK
  5
411
330
40E
100
AcDbEntity
  8
0
100
AcDbBlockBegin
  2
#POLYLINE(143)
 70
     0
 10
0.0
 20
0.0
 30
0.0
  3
#POLYLINE(143)
  1
#POLYLINE(143)
  0
LWPOLYLINE
  5
40F
330
40E
100
AcDbEntity
  8
Mirrors
100
AcDbPolyline
 90
       59
 70
     0
 43
0.0
 10
140.2806966380012
 20
-19326.1625781
 10
144.5910286510007
 20
-19326.1731522
 10
148.9013607519992
 20
-19326.1836858
 10
153.2116929410004
 20
-19326.1941789
 10
157.5220252190011
 20
-19326.2046314
 10
161.8323575860013
 20
-19326.2150433
 10
166.1426900410006
 20
-19326.2254147
 10
170.4530225849994
 20
-19326.2357455
 10
174.7633552180014
 20
-19326.2460358
 10
179.0736879389988
 20
-19326.2562855
 10
183.3840207479989
 20
-19326.2664947
 10
187.6943536469989
 20
-19326.2766633
 10
192.0046866340017
 20
-19326.2867914
 10
196.3150197089999
 20
-19326.2968789
 10
200.6253528740017
 20
-19326.3069259
 10
204.9356861259985
 20
-19326.3169323
 10
209.2460194679988
 20
-19326.3268981
 10
213.5563528979983
 20
-19326.3368234
 10
217.8666864170009
 20
-19326.3467081
 10
222.1770200239989
 20
-19326.3565523
 10
226.4873537200001
 20
-19326.366356
 10
230.7976875040004
 20
-19326.376119
 10
235.1080213770001
 20
-19326.3858415
 10
239.4183553389994
 20
-19326.3955235
 10
243.7286893900018
 20
-19326.4051649
 10
248.0390235279992
 20
-19326.4147658
 10
252.3493577560002
 20
-19326.4243261
 10
256.6596920720003
 20
-19326.4338458
 10
260.9700264769999
 20
-19326.443325
 10
265.2803609699986
 20
-19326.4527637
 10
269.5906955520004
 20
-19326.4621618
 10
273.9010302230017
 20
-19326.4715193
 10
278.2113649819985
 20
-19326.4808363
 10
282.5216998299984
 20
-19326.4901127
 10
286.8320347670015
 20
-19326.4993486
 10
291.142369792
 20
-19326.5085439
 10
295.4527049060016
 20
-19326.5176987
 10
299.7630401079987
 20
-19326.5268129
 10
304.0733753989989
 20
-19326.5358865
 10
308.3837107779982
 20
-19326.5449196
 10
312.6940462470011
 20
-19326.5539122
 10
317.004381802999
 20
-19326.5628642
 10
321.3147174490005
 20
-19326.5717756
 10
325.625053183001
 20
-19326.5806465
 10
329.9353890050006
 20
-19326.5894768
 10
334.2457249170002
 20
-19326.5982666
 10
338.5560609159984
 20
-19326.6070158
 10
342.8663970050002
 20
-19326.6157245
 10
347.176733182001
 20
-19326.6243926
 10
351.4870694480014
 20
-19326.6330201
 10
355.7974058020009
 20
-19326.6416071
 10
360.1077422449998
 20
-19326.6501536
 10
364.4180787760015
 20
-19326.6586595
 10
368.7284153969995
 20
-19326.6671248
 10
373.0387521049997
 20
-19326.6755496
 10
377.3490889029999
 20
-19326.6839339
 10
381.6594257889992
 20
-19326.6922775
 10
385.9697627630012
 20
-19326.7005807
 10
390.2800998259991
 20
-19326.7088432
  0
ENDBLK
  5
412
330
40E
100
AcDbEntity
  8
0
100
AcDbBlockEnd
  0
BLOCK
  5
41F
330
41C
100
AcDbEntity
  8
0
100
AcDbBlockBegin
  2
#POLYLINE(144)
 70
     0
 10
0.0
 20
0.0
 30
0.0
  3
#POLYLINE(144)
  1
#POLYLINE(144)
  0
LWPOLYLINE
  5
41D
330
41C
100
AcDbEntity
  8
Mirrors
100
AcDbPolyline
 90
       59
 70
     0
 43
0.0
 10
102.4094429120014
 20
3023221.97254
 10
98.61633946350048
 20
3023221.97276
 10
94.82323601530152
 20
3023221.97297
 10
91.03013256700069
 20
3023221.97317
 10
87.23702911869987
 20
3023221.97336
 10
83.44392567039904
 20
3023221.97355
 10
79.65082222220008
 20
3023221.97373
 10
75.85771877389925
 20
3023221.9739
 10
72.06461532559842
 20
3023221.97406
 10
68.27151187730124
 20
3023221.97421
 10
64.47840842909864
 20
3023221.97436
 10
60.68530498080145
 20
3023221.9745
 10
56.89220153250062
 20
3023221.97463
 10
53.0990980841998
 20
3023221.97476
 10
49.30599463600083
 20
3023221.97488
 10
45.51289118770001
 20
3023221.97499
 10
41.71978773939918
 20
3023221.97509
 10
37.92668429109835
 20
3023221.97518
 10
34.13358084289939
 20
3023221.97527
 10
30.34047739459857
 20
3023221.97535
 10
26.54737394630138
 20
3023221.97542
 10
22.75427049800055
 20
3023221.97549
 10
18.96116704980159
 20
3023221.97554
 10
15.16806360150076
 20
3023221.97559
 10
11.37496015319994
 20
3023221.97563
 10
7.581856704920938
 20
3023221.97567
 10
3.788753256649215
 20
3023221.97569
 10
-0.0043501916261448
 20
3023221.97571
 10
-3.797453639901505
 20
3023221.97572
 10
-7.590557088180503
 20
3023221.97573
 10
-11.38366053649952
 20
3023221.97572
 10
-15.17676398469848
 20
3023221.97571
 10
-18.96986743299931
 20
3023221.97569
 10
-22.76297088130013
 20
3023221.97567
 10
-26.55607432960096
 20
3023221.97563
 10
-30.34917777779992
 20
3023221.97559
 10
-34.14228122610075
 20
3023221.97554
 10
-37.93538467440158
 20
3023221.97549
 10
-41.72848812269876
 20
3023221.97542
 10
-45.52159157090136
 20
3023221.97535
 10
-49.31469501919855
 20
3023221.97527
 10
-53.10779846749938
 20
3023221.97518
 10
-56.9009019158002
 20
3023221.97509
 10
-60.69400536399917
 20
3023221.97499
 10
-64.4871088123
 20
3023221.97488
 10
-68.28021226060082
 20
3023221.97476
 10
-72.07331570890165
 20
3023221.97463
 10
-75.86641915710061
 20
3023221.9745
 10
-79.65952260540143
 20
3023221.97436
 10
-83.45262605369862
 20
3023221.97421
 10
-87.24572950199945
 20
3023221.97406
 10
-91.03883295019841
 20
3023221.9739
 10
-94.83193639849924
 20
3023221.97373
 10
-98.62503984680006
 20
3023221.97355
 10
-102.418143294999
 20
3023221.97336
 10
-106.2112467430015
 20
3023221.97317
 10
-110.0043501920009
 20
3023221.97297
 10
-113.7974536399997
 20
3023221.97276
 10
-117.5905570879986
 20
3023221.97254
  0
ENDBLK
  5
420
330
41C
100
AcDbEntity
  8
0
100
AcDbBlockEnd
  0
BLOCK
  5
428
330
425
100
AcDbEntity
  8
0
100
AcDbBlockBegin
  2
#POLYLINE(145)
 70
     0
 10
0.0
 20
0.0
 30
0.0
  3
#POLYLINE(145)
  1
#POLYLINE(145)
  0
LWPOLYLINE
  5
426
330
425
100
AcDbEntity
  8
Mirrors
100
AcDbPolyline
 90
       59
 70
     0
 43
0.0
 10
3026507.10965
 20
-126.380728483
 10
3026507.10987
 20
-122.5876250350011
 10
3026507.11008
 20
-118.7945215869986
 10
3026507.11028
 20
-115.0014181389997
 10
3026507.11047
 20
-111.2083146900004
 10
3026507.11066
 20
-107.4152112420015
 10
3026507.11084
 20
-103.622107793999
 10
3026507.11101
 20
-99.82900434550174
 10
3026507.11117
 20
-96.03590089729914
 10
3026507.11132
 20
-92.24279744899832
 10
3026507.11147
 20
-88.44969400070113
 10
3026507.11161
 20
-84.6565905524003
 10
3026507.11174
 20
-80.86348710420134
 10
3026507.11187
 20
-77.07038365590051
 10
3026507.11199
 20
-73.27728020759969
 10
3026507.1121
 20
-69.48417675929886
 10
3026507.1122
 20
-65.6910733110999
 10
3026507.11229
 20
-61.89796986279907
 10
3026507.11238
 20
-58.10486641449825
 10
3026507.11246
 20
-54.31176296620106
 10
3026507.11253
 20
-50.51865951790023
 10
3026507.1126
 20
-46.72555606970127
 10
3026507.11265
 20
-42.93245262140044
 10
3026507.1127
 20
-39.13934917309962
 10
3026507.11274
 20
-35.34624572479879
 10
3026507.11278
 20
-31.55314227659983
 10
3026507.1128
 20
-27.760038828299
 10
3026507.11282
 20
-23.96693538000181
 10
3026507.11283
 20
-20.17383193170099
 10
3026507.11284
 20
-16.38072848349839
 10
3026507.11283
 20
-12.5876250352012
 10
3026507.11282
 20
-8.794521586911287
 10
3026507.1128
 20
-5.001418138639565
 10
3026507.11278
 20
-1.208314690360567
 10
3026507.11274
 20
2.584788757918432
 10
3026507.1127
 20
6.377892206190154
 10
3026507.11265
 20
10.17099565449826
 10
3026507.1126
 20
13.96409910270086
 10
3026507.11253
 20
17.75720255100168
 10
3026507.11246
 20
21.55030599929887
 10
3026507.11238
 20
25.3434094475997
 10
3026507.11229
 20
29.13651289579866
 10
3026507.1122
 20
32.92961634409949
 10
3026507.1121
 20
36.72271979240031
 10
3026507.11199
 20
40.51582324070114
 10
3026507.11187
 20
44.3089266889001
 10
3026507.11174
 20
48.10203013720093
 10
3026507.11161
 20
51.89513358550175
 10
3026507.11147
 20
55.68823703379894
 10
3026507.11132
 20
59.48134048209977
 10
3026507.11117
 20
63.27444393029873
 10
3026507.11101
 20
67.06754737859956
 10
3026507.11084
 20
70.86065082690038
 10
3026507.11066
 20
74.65375427520121
 10
3026507.11047
 20
78.44685772340017
 10
3026507.11028
 20
82.239961171701
 10
3026507.11008
 20
86.03306461999819
 10
3026507.10987
 20
89.82616806829901
 10
3026507.10965
 20
93.61927151650161
  0
ENDBLK
  5
429
330
425
100
AcDbEntity
  8
0
100
AcDbBlockEnd
  0
BLOCK
  5
431
330
42E
100
AcDbEntity
  8
0
100
AcDbBlockBegin
  2
#POLYLINE(146)
 70
     0
 10
0.0
 20
0.0
 30
0.0
  3
#POLYLINE(146)
  1
#POLYLINE(146)
  0
LWPOLYLINE
  5
42F
330
42E
100
AcDbEntity
  8
Mirrors
100
AcDbPolyline
 90
       59
 70
     0
 43
0.0
 10
-77.75096007380125
 20
-15692.3187811
 10
-73.44107915889981
 20
-15692.3854943
 10
-69.13119037900105
 20
-15692.4514619
 10
-64.82129373410135
 20
-15692.5166839
 10
-60.51138922429891
 20
-15692.5811602
 10
-56.20147684940093
 20
-15692.6448909
 10
-51.89155660969845
 20
-15692.7078759
 10
-47.58162850510053
 20
-15692.7701153
 10
-43.27169253550164
 20
-15692.8316091
 10
-38.96174870109826
 20
-15692.8923573
 10
-34.65179700190129
 20
-15692.9523598
 10
-30.34183743769972
 20
-15693.0116167
 10
-26.03187000879916
 20
-15693.070128
 10
-21.72189471499951
 20
-15693.1278936
 10
-17.41191155639899
 20
-15693.1849137
 10
-13.10192053300125
 20
-15693.2411881
 10
-8.791921644758986
 20
-15693.2967169
 10
-4.481914891781344
 20
-15693.3515001
 10
-0.1719002740283031
 20
-15693.4055377
 10
4.138122208489222
 20
-15693.4588296
 10
8.44815255577123
 20
-15693.511376
 10
12.75819076779953
 20
-15693.5631767
 10
17.0682368445996
 20
-15693.6142318
 10
21.37829078609866
 20
-15693.6645413
 10
25.68835259230036
 20
-15693.7141051
 10
29.99842226329929
 20
-15693.7629234
 10
34.30849979900086
 20
-15693.8109961
 10
38.61858519949965
 20
-15693.8583231
 10
42.92867846459922
 20
-15693.9049045
 10
47.23877959449965
 20
-15693.9507403
 10
51.54888858909908
 20
-15693.9958305
 10
55.85900544849937
 20
-15694.0401751
 10
60.16913017250045
 20
-15694.0837741
 10
64.47926276129874
 20
-15694.1266275
 10
68.78940321479968
 20
-15694.1687352
 10
73.09955153299961
 20
-15694.2100974
 10
77.40970771600041
 20
-15694.2507139
 10
81.71987176370021
 20
-15694.2905848
 10
86.03004367620088
 20
-15694.3297101
 10
90.34022345340054
 20
-15694.3680898
 10
94.65041109540107
 20
-15694.4057238
 10
98.9606066021006
 20
-15694.4426123
 10
103.2708099740012
 20
-15694.4787551
 10
107.5810212100005
 20
-15694.5141523
 10
111.8912403110007
 20
-15694.5488039
 10
116.2014672769983
 20
-15694.5827099
 10
120.5117021080005
 20
-15694.6158703
 10
124.8219448029995
 20
-15694.648285
 10
129.1321953639999
 20
-15694.6799541
 10
133.4424537890009
 20
-15694.7108776
 10
137.7527200789991
 20
-15694.7410554
 10
142.0629942339983
 20
-15694.7704877
 10
146.3732762539985
 20
-15694.7991743
 10
150.6835661379992
 20
-15694.8271152
 10
154.9938638880012
 20
-15694.8543106
 10
159.3041695030006
 20
-15694.8807603
 10
163.6144829820005
 20
-15694.9064644
 10
167.9248043270018
 20
-15694.9314228
 10
172.2351335359999
 20
-15694.9556356
  0
ENDBLK
  5
432
330
42E
100
AcDbEntity
  8
0
100
AcDbBlockEnd
  0
ENDSEC
  0
SECTION
  2
ENTITIES
  0
TEXT
  5
A0
330
1F
100
AcDbEntity
  8
input_beam
100
AcDbText
 10
5235.518711563633
 20
20698.43776249681
 30
0.0
 40
15.0
  1
PD
  7
VCDSTYLE10
100
AcDbText
  0
LWPOLYLINE
  5
A1
330
1F
100
AcDbEntity
  8
Default
100
AcDbPolyline
 90
        5
 70
     0
 43
0.0
 10
5243.001017342807
 20
20651.43700605606
 10
5299.653866570082
 20
20733.84122120572
 10
5258.45175899525
 20
20762.16764581936
 10
5201.798909767977
 20
20679.7634306697
 10
5243.001017342807
 20
20651.43700605606
  0
LWPOLYLINE
  5
A2
330
1F
100
AcDbEntity
  8
Mirrors
100
AcDbPolyline
 90
        5
 70
     0
 43
0.0
 10
5196.585745518314
 20
20776.51436483825
 10
5147.005154314473
 20
20765.45068661275
 10
5149.61862161184
 20
20753.73873593468
 10
5199.199212815676
 20
20764.80241416017
 10
5196.585745518314
 20
20776.51436483825
  0
LINE
  5
A3
330
1F
100
AcDbEntity
  8
input_beam
100
AcDbLine
 10
8482.291879600001
 20
20162.6827502769
 30
0.0
 11
9481.484266400003
 21
20122.500985967
 31
0.0
  0
LWPOLYLINE
  5
A4
330
1F
100
AcDbEntity
  8
input_beam_width
100
AcDbPolyline
 90
        3
 70
     0
 43
0.0
 10
5046.311163567507
 20
20540.34860016937
 10
5174.408917213758
 20
20759.27057504743
 10
5230.125334381613
 20
20720.96553824453
  0
LWPOLYLINE
  5
A5
330
1F
100
AcDbEntity
  8
Mirrors
100
AcDbPolyline
 90
        5
 70
     0
 43
0.0
 10
5024.165690862063
 20
20557.63264016736
 10
5047.023407368873
 20
20512.26563898705
 10
5057.74002182091
 20
20517.66509957922
 10
5034.882305314104
 20
20563.03210075952
 10
5024.165690862063
 20
20557.63264016736
  0
LWPOLYLINE
  5
A6
330
1F
100
AcDbEntity
  8
OpLev
100
AcDbPolyline
 90
        3
 70
     0
 43
0.0
 10
5063.135685764421
 20
20677.59956962084
 10
4986.476297548066
 20
20741.81279410221
 10
4909.816909331711
 20
20806.02601858357
  0
LINE
  5
A7
330
1F
100
AcDbEntity
  8
OpLev
100
AcDbLine
 10
5236.536197118712
 20
20506.29901202221
 30
0.0
 11
5055.82698138183
 21
20392.08816989556
 31
0.0
  0
LINE
  5
A8
330
1F
100
AcDbEntity
  8
OpLev
100
AcDbLine
 10
5063.135685764421
 20
20677.59956962084
 30
0.0
 11
5238.187171281205
 21
20530.96770171187
 31
0.0
  0
LINE
  5
A9
330
1F
100
AcDbEntity
  8
OpLev
100
AcDbLine
 10
5045.157411241412
 20
20408.97000088467
 30
0.0
 11
5238.187171281205
 21
20530.96770171187
 31
0.0
  0
LINE
  5
AA
330
1F
100
AcDbEntity
  8
OpLev
100
AcDbLine
 10
5055.82698138153
 20
20392.08816989539
 30
0.0
 11
5045.157411241596
 21
20408.97000088438
 31
0.0
  0
LWPOLYLINE
  5
AB
330
1F
100
AcDbEntity
  8
Default
100
AcDbPolyline
 90
        3
 70
     0
 43
0.0
 10
5049.827930674891
 20
20429.68377286528
 10
5042.051280822509
 20
20395.19430031099
 10
5076.540753376805
 20
20387.41765045861
  0
TEXT
  5
AC
330
1F
100
AcDbEntity
  8
input_beam
100
AcDbText
 10
8677.550695749724
 20
20339.25022309401
 30
0.0
 40
15.0
  1
PD
  7
VCDSTYLE10
100
AcDbText
  0
LWPOLYLINE
  5
AD
330
1F
100
AcDbEntity
  8
Mirrors
100
AcDbPolyline
 90
        5
 70
     0
 43
0.0
 10
8568.953841877199
 20
20427.81369665431
 10
8533.858649985323
 20
20391.08540366277
 10
8542.534624707736
 20
20382.79520085367
 10
8577.629816599612
 20
20419.5234938452
 10
8568.953841877199
 20
20427.81369665431
  0
LINE
  5
AE
330
1F
100
AcDbEntity
  8
input_beam
100
AcDbLine
 10
8560.082220653674
 20
20401.15934734944
 30
0.0
 11
8669.24624602878
 21
20354.98549625091
 31
0.0
  0
LWPOLYLINE
  5
AF
330
1F
100
AcDbEntity
  8
Default
100
AcDbPolyline
 90
        5
 70
     0
 43
0.0
 10
8695.818213674514
 20
20289.4574065837
 10
8734.774335695993
 20
20381.55746389664
 10
8688.72430703952
 20
20401.03552490738
 10
8649.768185018042
 20
20308.93546759444
 10
8695.818213674514
 20
20289.4574065837
  0
LINE
  5
B0
330
1F
100
AcDbEntity
  8
OpLev
100
AcDbLine
 10
8482.248243950144
 20
20161.87354896059
 30
0.0
 11
8892.546409422743
 21
20114.05237594015
 31
0.0
  0
LINE
  5
B1
330
1F
100
AcDbEntity
  8
OpLev
100
AcDbLine
 10
8482.248243950144
 20
20161.87354896059
 30
0.0
 11
8895.309666418518
 21
20165.29560209193
 31
0.0
  0
LINE
  5
B2
330
1F
100
AcDbEntity
  8
input_beam
100
AcDbLine
 10
8677.74993558744
 20
20154.82255273948
 30
0.0
 11
8560.082220653674
 21
20401.15934734944
 31
0.0
  0
LWPOLYLINE
  5
B3
330
1F
100
AcDbEntity
  8
Mirrors
100
AcDbPolyline
 90
        5
 70
     0
 43
0.0
 10
8691.726835020214
 20
20176.03118971231
 10
8663.773036154691
 20
20133.6139157666
 10
8673.792864645806
 20
20127.01065619207
 10
8701.74666351133
 20
20169.42793013778
 10
8691.726835020214
 20
20176.03118971231
  0
LINE
  5
B4
330
1F
100
AcDbEntity
  8
OpLev
100
AcDbLine
 10
5236.536197118712
 20
20506.29901202221
 30
0.0
 11
4905.028040406354
 21
20783.98660163178
 31
0.0
  0
INSERT
  5
B7
330
1F
100
AcDbEntity
  8
input_beam_width
100
AcDbBlockReference
  2
#POLYLINE
 10
29796.2890101
 20
20226.4355913
 30
0.0
  0
INSERT
  5
BC
330
1F
100
AcDbEntity
  8
input_beam_width
100
AcDbBlockReference
  2
#POLYLINE(1)
 10
29796.2890101
 20
20226.4355913
 30
0.0
  0
INSERT
  5
C1
330
1F
100
AcDbEntity
  8
input_beam_width
100
AcDbBlockReference
  2
#POLYLINE(2)
 10
29796.2890101
 20
20226.4355913
 30
0.0
  0
INSERT
  5
C6
330
1F
100
AcDbEntity
  8
input_beam_width
100
AcDbBlockReference
  2
#POLYLINE(3)
 10
29796.2890101
 20
20226.4355913
 30
0.0
  0
INSERT
  5
CB
330
1F
100
AcDbEntity
  8
input_beam_width
100
AcDbBlockReference
  2
#POLYLINE(4)
 10
29796.2890101
 20
20226.4355913
 30
0.0
  0
INSERT
  5
D0
330
1F
100
AcDbEntity
  8
input_beam_width
100
AcDbBlockReference
  2
#POLYLINE(5)
 10
29796.2890101
 20
20226.4355913
 30
0.0
  0
INSERT
  5
D5
330
1F
100
AcDbEntity
  8
input_beam_width
100
AcDbBlockReference
  2
#POLYLINE(6)
 10
29796.2890101
 20
20226.4355913
 30
0.0
  0
INSERT
  5
DA
330
1F
100
AcDbEntity
  8
input_beam_width
100
AcDbBlockReference
  2
#POLYLINE(7)
 10
29796.2890101
 20
20226.4355913
 30
0.0
  0
INSERT
  5
DF
330
1F
100
AcDbEntity
  8
input_beam_width
100
AcDbBlockReference
  2
#POLYLINE(8)
 10
29796.2890101
 20
20226.4355913
 30
0.0
  0
INSERT
  5
E4
330
1F
100
AcDbEntity
  8
input_beam_width
100
AcDbBlockReference
  2
#POLYLINE(9)
 10
29796.2890101
 20
20226.4355913
 30
0.0
  0
INSERT
  5
E9
330
1F
100
AcDbEntity
  8
input_beam_width
100
AcDbBlockReference
  2
#POLYLINE(10)
 10
29796.2890101
 20
20226.4355913
 30
0.0
  0
INSERT
  5
EE
330
1F
100
AcDbEntity
  8
input_beam_width
100
AcDbBlockReference
  2
#POLYLINE(11)
 10
29796.2890101
 20
20226.4355913
 30
0.0
  0
INSERT
  5
F3
330
1F
100
AcDbEntity
  8
input_beam_width
100
AcDbBlockReference
  2
#POLYLINE(12)
 10
29796.2890101
 20
20226.4355913
 30
0.0
  0
INSERT
  5
F8
330
1F
100
AcDbEntity
  8
input_beam_width
100
AcDbBlockReference
  2
#POLYLINE(13)
 10
29796.2890101
 20
20226.4355913
 30
0.0
  0
INSERT
  5
FD
330
1F
100
AcDbEntity
  8
input_beam_width
100
AcDbBlockReference
  2
#POLYLINE(14)
 10
29796.2890101
 20
20226.4355913
 30
0.0
  0
INSERT
  5
102
330
1F
100
AcDbEntity
  8
input_beam_width
100
AcDbBlockReference
  2
#POLYLINE(15)
 10
29796.2890101
 20
20226.4355913
 30
0.0
  0
INSERT
  5
107
330
1F
100
AcDbEntity
  8
input_beam_width
100
AcDbBlockReference
  2
#POLYLINE(16)
 10
29796.2890101
 20
20226.4355913
 30
0.0
  0
INSERT
  5
10C
330
1F
100
AcDbEntity
  8
input_beam_width
100
AcDbBlockReference
  2
#POLYLINE(17)
 10
29796.2890101
 20
20226.4355913
 30
0.0
  0
INSERT
  5
111
330
1F
100
AcDbEntity
  8
input_beam_width
100
AcDbBlockReference
  2
#POLYLINE(18)
 10
29796.2890101
 20
20226.4355913
 30
0.0
  0
INSERT
  5
116
330
1F
100
AcDbEntity
  8
input_beam_width
100
AcDbBlockReference
  2
#POLYLINE(19)
 10
29796.2890101
 20
20226.4355913
 30
0.0
  0
INSERT
  5
11B
330
1F
100
AcDbEntity
  8
input_beam_width
100
AcDbBlockReference
  2
#POLYLINE(20)
 10
29796.2890101
 20
20226.4355913
 30
0.0
  0
INSERT
  5
120
330
1F
100
AcDbEntity
  8
input_beam_width
100
AcDbBlockReference
  2
#POLYLINE(21)
 10
29796.2890101
 20
20226.4355913
 30
0.0
  0
INSERT
  5
125
330
1F
100
AcDbEntity
  8
input_beam_width
100
AcDbBlockReference
  2
#POLYLINE(22)
 10
29796.2890101
 20
20226.4355913
 30
0.0
  0
INSERT
  5
12A
330
1F
100
AcDbEntity
  8
input_beam_width
100
AcDbBlockReference
  2
#POLYLINE(23)
 10
29796.2890101
 20
20226.4355913
 30
0.0
  0
INSERT
  5
12F
330
1F
100
AcDbEntity
  8
input_beam_width
100
AcDbBlockReference
  2
#POLYLINE(24)
 10
29796.2890101
 20
20226.4355913
 30
0.0
  0
INSERT
  5
134
330
1F
100
AcDbEntity
  8
input_beam_width
100
AcDbBlockReference
  2
#POLYLINE(25)
 10
29796.2890101
 20
20226.4355913
 30
0.0
  0
INSERT
  5
139
330
1F
100
AcDbEntity
  8
input_beam_width
100
AcDbBlockReference
  2
#POLYLINE(26)
 10
29796.2890101
 20
20226.4355913
 30
0.0
  0
INSERT
  5
13E
330
1F
100
AcDbEntity
  8
input_beam_width
100
AcDbBlockReference
  2
#POLYLINE(27)
 10
29796.2890101
 20
20226.4355913
 30
0.0
  0
INSERT
  5
143
330
1F
100
AcDbEntity
  8
aux_beam_width
100
AcDbBlockReference
  2
#POLYLINE(28)
 10
29796.2890101
 20
20226.4355913
 30
0.0
  0
INSERT
  5
148
330
1F
100
AcDbEntity
  8
aux_beam_width
100
AcDbBlockReference
  2
#POLYLINE(29)
 10
29796.2890101
 20
20226.4355913
 30
0.0
  0
INSERT
  5
14D
330
1F
100
AcDbEntity
  8
aux_beam_width
100
AcDbBlockReference
  2
#POLYLINE(30)
 10
29796.2890101
 20
20226.4355913
 30
0.0
  0
INSERT
  5
152
330
1F
100
AcDbEntity
  8
aux_beam_width
100
AcDbBlockReference
  2
#POLYLINE(31)
 10
29796.2890101
 20
20226.4355913
 30
0.0
  0
INSERT
  5
157
330
1F
100
AcDbEntity
  8
aux_beam_width
100
AcDbBlockReference
  2
#POLYLINE(32)
 10
29796.2890101
 20
20226.4355913
 30
0.0
  0
INSERT
  5
15C
330
1F
100
AcDbEntity
  8
aux_beam_width
100
AcDbBlockReference
  2
#POLYLINE(33)
 10
29796.2890101
 20
20226.4355913
 30
0.0
  0
INSERT
  5
161
330
1F
100
AcDbEntity
  8
aux_beam_width
100
AcDbBlockReference
  2
#POLYLINE(34)
 10
29796.2890101
 20
20226.4355913
 30
0.0
  0
INSERT
  5
166
330
1F
100
AcDbEntity
  8
aux_beam_width
100
AcDbBlockReference
  2
#POLYLINE(35)
 10
29796.2890101
 20
20226.4355913
 30
0.0
  0
INSERT
  5
16B
330
1F
100
AcDbEntity
  8
aux_beam_width
100
AcDbBlockReference
  2
#POLYLINE(36)
 10
29796.2890101
 20
20226.4355913
 30
0.0
  0
INSERT
  5
170
330
1F
100
AcDbEntity
  8
aux_beam_width
100
AcDbBlockReference
  2
#POLYLINE(37)
 10
29796.2890101
 20
20226.4355913
 30
0.0
  0
INSERT
  5
175
330
1F
100
AcDbEntity
  8
aux_beam_width
100
AcDbBlockReference
  2
#POLYLINE(38)
 10
29796.2890101
 20
20226.4355913
 30
0.0
  0
INSERT
  5
17A
330
1F
100
AcDbEntity
  8
aux_beam_width
100
AcDbBlockReference
  2
#POLYLINE(39)
 10
29796.2890101
 20
20226.4355913
 30
0.0
  0
INSERT
  5
17F
330
1F
100
AcDbEntity
  8
aux_beam_width
100
AcDbBlockReference
  2
#POLYLINE(40)
 10
29796.2890101
 20
20226.4355913
 30
0.0
  0
INSERT
  5
184
330
1F
100
AcDbEntity
  8
aux_beam_width
100
AcDbBlockReference
  2
#POLYLINE(41)
 10
29796.2890101
 20
20226.4355913
 30
0.0
  0
INSERT
  5
189
330
1F
100
AcDbEntity
  8
aux_beam_width
100
AcDbBlockReference
  2
#POLYLINE(42)
 10
29796.2890101
 20
20226.4355913
 30
0.0
  0
INSERT
  5
18E
330
1F
100
AcDbEntity
  8
aux_beam_width
100
AcDbBlockReference
  2
#POLYLINE(43)
 10
29796.2890101
 20
20226.4355913
 30
0.0
  0
INSERT
  5
193
330
1F
100
AcDbEntity
  8
aux_beam_width
100
AcDbBlockReference
  2
#POLYLINE(44)
 10
29796.2890101
 20
20226.4355913
 30
0.0
  0
INSERT
  5
198
330
1F
100
AcDbEntity
  8
aux_beam_width
100
AcDbBlockReference
  2
#POLYLINE(45)
 10
29796.2890101
 20
20226.4355913
 30
0.0
  0
INSERT
  5
19D
330
1F
100
AcDbEntity
  8
aux_beam_width
100
AcDbBlockReference
  2
#POLYLINE(46)
 10
29796.2890101
 20
20226.4355913
 30
0.0
  0
INSERT
  5
1A2
330
1F
100
AcDbEntity
  8
aux_beam_width
100
AcDbBlockReference
  2
#POLYLINE(47)
 10
29796.2890101
 20
20226.4355913
 30
0.0
  0
INSERT
  5
1A7
330
1F
100
AcDbEntity
  8
Vacuum
100
AcDbBlockReference
  2
#POLYLINE(48)
 10
29796.2890101
 20
20226.4355913
 30
0.0
  0
INSERT
  5
1AC
330
1F
100
AcDbEntity
  8
Vacuum
100
AcDbBlockReference
  2
#POLYLINE(49)
 10
29796.2890101
 20
20226.4355913
 30
0.0
  0
INSERT
  5
1B1
330
1F
100
AcDbEntity
  8
Vacuum
100
AcDbBlockReference
  2
#POLYLINE(50)
 10
29796.2890101
 20
20226.4355913
 30
0.0
  0
INSERT
  5
1B6
330
1F
100
AcDbEntity
  8
Vacuum
100
AcDbBlockReference
  2
#POLYLINE(51)
 10
29796.2890101
 20
20226.4355913
 30
0.0
  0
INSERT
  5
1BB
330
1F
100
AcDbEntity
  8
Vacuum
100
AcDbBlockReference
  2
#POLYLINE(52)
 10
29796.2890101
 20
20226.4355913
 30
0.0
  0
INSERT
  5
1C0
330
1F
100
AcDbEntity
  8
Vacuum
100
AcDbBlockReference
  2
#POLYLINE(53)
 10
29796.2890101
 20
20226.4355913
 30
0.0
  0
INSERT
  5
1C5
330
1F
100
AcDbEntity
  8
Vacuum
100
AcDbBlockReference
  2
#POLYLINE(54)
 10
29796.2890101
 20
20226.4355913
 30
0.0
  0
INSERT
  5
1CA
330
1F
100
AcDbEntity
  8
Vacuum
100
AcDbBlockReference
  2
#POLYLINE(55)
 10
29796.2890101
 20
20226.4355913
 30
0.0
  0
INSERT
  5
1CF
330
1F
100
AcDbEntity
  8
Vacuum
100
AcDbBlockReference
  2
#POLYLINE(56)
 10
29796.2890101
 20
20226.4355913
 30
0.0
  0
INSERT
  5
1D4
330
1F
100
AcDbEntity
  8
Vacuum
100
AcDbBlockReference
  2
#POLYLINE(57)
 10
29796.2890101
 20
20226.4355913
 30
0.0
  0
INSERT
  5
1D9
330
1F
100
AcDbEntity
  8
Vacuum
100
AcDbBlockReference
  2
#POLYLINE(58)
 10
29796.2890101
 20
20226.4355913
 30
0.0
  0
INSERT
  5
1DE
330
1F
100
AcDbEntity
  8
Vacuum
100
AcDbBlockReference
  2
#POLYLINE(59)
 10
29796.2890101
 20
20226.4355913
 30
0.0
  0
INSERT
  5
1E3
330
1F
100
AcDbEntity
  8
Vacuum
100
AcDbBlockReference
  2
#POLYLINE(60)
 10
29796.2890101
 20
20226.4355913
 30
0.0
  0
INSERT
  5
1E8
330
1F
100
AcDbEntity
  8
Vacuum
100
AcDbBlockReference
  2
#POLYLINE(61)
 10
29796.2890101
 20
20226.4355913
 30
0.0
  0
INSERT
  5
1ED
330
1F
100
AcDbEntity
  8
Vacuum
100
AcDbBlockReference
  2
#POLYLINE(62)
 10
29796.2890101
 20
20226.4355913
 30
0.0
  0
INSERT
  5
1F2
330
1F
100
AcDbEntity
  8
Vacuum
100
AcDbBlockReference
  2
#POLYLINE(63)
 10
29796.2890101
 20
20226.4355913
 30
0.0
  0
INSERT
  5
1F7
330
1F
100
AcDbEntity
  8
Vacuum
100
AcDbBlockReference
  2
#POLYLINE(64)
 10
29796.2890101
 20
20226.4355913
 30
0.0
  0
INSERT
  5
1FC
330
1F
100
AcDbEntity
  8
Vacuum
100
AcDbBlockReference
  2
#POLYLINE(65)
 10
29796.2890101
 20
20226.4355913
 30
0.0
  0
CIRCLE
  5
1FF
330
1F
100
AcDbEntity
  8
Vacuum
100
AcDbCircle
 10
5517.240010100002
 20
20353.3971913
 30
0.0
 40
600.0
  0
CIRCLE
  5
200
330
1F
100
AcDbEntity
  8
Vacuum
100
AcDbCircle
 10
8202.241010100002
 20
20353.3971913
 30
0.0
 40
600.0
  0
CIRCLE
  5
201
330
1F
100
AcDbEntity
  8
Vacuum
100
AcDbCircle
 10
2287.150010100002
 20
46775.9971913
 30
0.0
 40
750.0
  0
CIRCLE
  5
202
330
1F
100
AcDbEntity
  8
Vacuum
100
AcDbCircle
 10
2287.241010100002
 20
20303.3971913
 30
0.0
 40
750.0
  0
LINE
  5
203
330
1F
100
AcDbEntity
  8
Vacuum
100
AcDbLine
 10
30217.066975153
 20
21048.145015264
 30
0.0
 11
30181.198453027
 21
42023.414504
 31
0.0
  0
LINE
  5
204
330
1F
100
AcDbEntity
  8
Vacuum
100
AcDbLine
 10
29432.066975153
 20
21048.145015264
 30
0.0
 11
29396.198453027
 21
42023.414504
 31
0.0
  0
LINE
  5
205
330
1F
100
AcDbEntity
  8
Vacuum
100
AcDbLine
 10
30674.566975153
 20
19805.645015264
 30
0.0
 11
54878.4050324
 21
19817.554862809
 31
0.0
  0
LINE
  5
206
330
1F
100
AcDbEntity
  8
Vacuum
100
AcDbLine
 10
30674.566975153
 20
20590.645015264
 30
0.0
 11
54878.4050324
 21
20602.554862809
 31
0.0
  0
INSERT
  5
209
330
1F
100
AcDbEntity
  8
Vacuum
100
AcDbBlockReference
  2
#POLYLINE(66)
 10
29796.2890101
 20
20226.4355913
 30
0.0
  0
CIRCLE
  5
20C
330
1F
100
AcDbEntity
  8
Vacuum
100
AcDbCircle
 10
29788.69845302671
 20
43373.414504
 30
0.0
 40
1250.0
  0
INSERT
  5
20F
330
1F
100
AcDbEntity
  8
Vacuum
100
AcDbBlockReference
  2
#POLYLINE(67)
 10
29796.2890101
 20
20226.4355913
 30
0.0
  0
CIRCLE
  5
212
330
1F
100
AcDbEntity
  8
Vacuum
100
AcDbCircle
 10
56228.4050324
 20
20210.0548628095
 30
0.0
 40
1250.0
  0
LINE
  5
213
330
1F
100
AcDbEntity
  8
Vacuum
100
AcDbLine
 10
30326.929869053
 20
16543.78377746
 30
0.0
 11
30217.066975153
 21
19348.145015264
 31
0.0
  0
LINE
  5
214
330
1F
100
AcDbEntity
  8
Vacuum
100
AcDbLine
 10
29541.929869053
 20
16543.78377746
 30
0.0
 11
29432.066975153
 21
19348.145015264
 31
0.0
  0
LINE
  5
215
330
1F
100
AcDbEntity
  8
Vacuum
100
AcDbLine
 10
30235.503725939
 20
5332.8011642
 30
0.0
 11
30326.929869053
 21
14843.78377746
 31
0.0
  0
LINE
  5
216
330
1F
100
AcDbEntity
  8
Vacuum
100
AcDbLine
 10
29450.503725939
 20
5332.8011642
 30
0.0
 11
29541.929869053
 21
14843.78377746
 31
0.0
  0
LINE
  5
217
330
1F
100
AcDbEntity
  8
Vacuum
100
AcDbLine
 10
30453.960155299
 20
1700.0
 30
0.0
 11
30235.503725939
 21
3632.801164199998
 31
0.0
  0
LINE
  5
218
330
1F
100
AcDbEntity
  8
Vacuum
100
AcDbLine
 10
29668.960155299
 20
1700.0
 30
0.0
 11
29450.503725939
 21
3632.801164199998
 31
0.0
  0
INSERT
  5
21B
330
1F
100
AcDbEntity
  8
Vacuum
100
AcDbBlockReference
  2
#POLYLINE(68)
 10
29796.2890101
 20
20226.4355913
 30
0.0
  0
CIRCLE
  5
21E
330
1F
100
AcDbEntity
  8
Vacuum
100
AcDbCircle
 10
29843.0037259387
 20
4482.8011642
 30
0.0
 40
750.0
  0
INSERT
  5
221
330
1F
100
AcDbEntity
  8
Vacuum
100
AcDbBlockReference
  2
#POLYLINE(69)
 10
29796.2890101
 20
20226.4355913
 30
0.0
  0
CIRCLE
  5
224
330
1F
100
AcDbEntity
  8
Vacuum
100
AcDbCircle
 10
30094.429869053
 20
15693.78377746
 30
0.0
 40
750.0000000000001
  0
INSERT
  5
227
330
1F
100
AcDbEntity
  8
Vacuum
100
AcDbBlockReference
  2
#POLYLINE(70)
 10
29796.2890101
 20
20226.4355913
 30
0.0
  0
CIRCLE
  5
22A
330
1F
100
AcDbEntity
  8
Vacuum
100
AcDbCircle
 10
30061.460155299
 20
850.0
 30
0.0
 40
750.0
  0
LINE
  5
22B
330
1F
100
AcDbEntity
  8
Vacuum
100
AcDbLine
 10
25998.14653448
 20
19943.240141968
 30
0.0
 11
28974.566975153
 21
19805.645015264
 31
0.0
  0
LINE
  5
22C
330
1F
100
AcDbEntity
  8
Vacuum
100
AcDbLine
 10
25998.14653448
 20
20728.240141968
 30
0.0
 11
28974.566975153
 21
20590.645015264
 31
0.0
  0
INSERT
  5
22F
330
1F
100
AcDbEntity
  8
Vacuum
100
AcDbBlockReference
  2
#POLYLINE(71)
 10
29796.2890101
 20
20226.4355913
 30
0.0
  0
INSERT
  5
234
330
1F
100
AcDbEntity
  8
Vacuum
100
AcDbBlockReference
  2
#POLYLINE(72)
 10
29796.2890101
 20
20226.4355913
 30
0.0
  0
CIRCLE
  5
237
330
1F
100
AcDbEntity
  8
Vacuum
100
AcDbCircle
 10
29824.5669751527
 20
20198.1450152635
 30
0.0
 40
750.0
  0
LINE
  5
238
330
1F
100
AcDbEntity
  8
Vacuum
100
AcDbLine
 10
14832.8344114
 20
20005.593892609
 30
0.0
 11
24298.14653448
 21
19943.240141968
 31
0.0
  0
LINE
  5
239
330
1F
100
AcDbEntity
  8
Vacuum
100
AcDbLine
 10
14832.8344114
 20
20790.593892609
 30
0.0
 11
24298.14653448
 21
20728.240141968
 31
0.0
  0
LINE
  5
23A
330
1F
100
AcDbEntity
  8
Vacuum
100
AcDbLine
 10
11134.1988137
 20
20060.510590679
 30
0.0
 11
13132.8344114
 21
20005.593892609
 31
0.0
  0
LINE
  5
23B
330
1F
100
AcDbEntity
  8
Vacuum
100
AcDbLine
 10
11134.1988137
 20
20845.510590679
 30
0.0
 11
13132.8344114
 21
20790.593892609
 31
0.0
  0
INSERT
  5
23E
330
1F
100
AcDbEntity
  8
Vacuum
100
AcDbBlockReference
  2
#POLYLINE(73)
 10
29796.2890101
 20
20226.4355913
 30
0.0
  0
CIRCLE
  5
241
330
1F
100
AcDbEntity
  8
Vacuum
100
AcDbCircle
 10
13982.8344114
 20
20238.0938926092
 30
0.0
 40
750.0
  0
INSERT
  5
244
330
1F
100
AcDbEntity
  8
Vacuum
100
AcDbBlockReference
  2
#POLYLINE(74)
 10
29796.2890101
 20
20226.4355913
 30
0.0
  0
CIRCLE
  5
247
330
1F
100
AcDbEntity
  8
Vacuum
100
AcDbCircle
 10
25148.14653448
 20
20495.740141968
 30
0.0
 40
750.0
  0
INSERT
  5
24A
330
1F
100
AcDbEntity
  8
Vacuum
100
AcDbBlockReference
  2
#POLYLINE(75)
 10
29796.2890101
 20
20226.4355913
 30
0.0
  0
CIRCLE
  5
24D
330
1F
100
AcDbEntity
  8
Vacuum
100
AcDbCircle
 10
10284.1988137
 20
20453.010590679
 30
0.0
 40
750.0
  0
INSERT
  5
250
330
1F
100
AcDbEntity
  8
main_beam_width
100
AcDbBlockReference
  2
#POLYLINE(76)
 10
29796.2890101
 20
20226.4355913
 30
0.0
  0
INSERT
  5
255
330
1F
100
AcDbEntity
  8
main_beam_width
100
AcDbBlockReference
  2
#POLYLINE(77)
 10
29796.2890101
 20
20226.4355913
 30
0.0
  0
INSERT
  5
25A
330
1F
100
AcDbEntity
  8
main_beam_width
100
AcDbBlockReference
  2
#POLYLINE(78)
 10
29796.2890101
 20
20226.4355913
 30
0.0
  0
INSERT
  5
25F
330
1F
100
AcDbEntity
  8
main_beam_width
100
AcDbBlockReference
  2
#POLYLINE(79)
 10
29796.2890101
 20
20226.4355913
 30
0.0
  0
INSERT
  5
264
330
1F
100
AcDbEntity
  8
main_beam_width
100
AcDbBlockReference
  2
#POLYLINE(80)
 10
29796.2890101
 20
20226.4355913
 30
0.0
  0
INSERT
  5
269
330
1F
100
AcDbEntity
  8
main_beam_width
100
AcDbBlockReference
  2
#POLYLINE(81)
 10
29796.2890101
 20
20226.4355913
 30
0.0
  0
INSERT
  5
26E
330
1F
100
AcDbEntity
  8
main_beam_width
100
AcDbBlockReference
  2
#POLYLINE(82)
 10
29796.2890101
 20
20226.4355913
 30
0.0
  0
INSERT
  5
273
330
1F
100
AcDbEntity
  8
main_beam_width
100
AcDbBlockReference
  2
#POLYLINE(83)
 10
29796.2890101
 20
20226.4355913
 30
0.0
  0
INSERT
  5
278
330
1F
100
AcDbEntity
  8
main_beam_width
100
AcDbBlockReference
  2
#POLYLINE(84)
 10
29796.2890101
 20
20226.4355913
 30
0.0
  0
INSERT
  5
27D
330
1F
100
AcDbEntity
  8
main_beam_width
100
AcDbBlockReference
  2
#POLYLINE(85)
 10
29796.2890101
 20
20226.4355913
 30
0.0
  0
INSERT
  5
282
330
1F
100
AcDbEntity
  8
main_beam_width
100
AcDbBlockReference
  2
#POLYLINE(86)
 10
29796.2890101
 20
20226.4355913
 30
0.0
  0
INSERT
  5
287
330
1F
100
AcDbEntity
  8
main_beam_width
100
AcDbBlockReference
  2
#POLYLINE(87)
 10
29796.2890101
 20
20226.4355913
 30
0.0
  0
INSERT
  5
28C
330
1F
100
AcDbEntity
  8
main_beam_width
100
AcDbBlockReference
  2
#POLYLINE(88)
 10
29796.2890101
 20
20226.4355913
 30
0.0
  0
INSERT
  5
291
330
1F
100
AcDbEntity
  8
main_beam_width
100
AcDbBlockReference
  2
#POLYLINE(89)
 10
29796.2890101
 20
20226.4355913
 30
0.0
  0
INSERT
  5
296
330
1F
100
AcDbEntity
  8
main_beam_width
100
AcDbBlockReference
  2
#POLYLINE(90)
 10
29796.2890101
 20
20226.4355913
 30
0.0
  0
INSERT
  5
29B
330
1F
100
AcDbEntity
  8
main_beam_width
100
AcDbBlockReference
  2
#POLYLINE(91)
 10
29796.2890101
 20
20226.4355913
 30
0.0
  0
INSERT
  5
2A0
330
1F
100
AcDbEntity
  8
main_beam_width
100
AcDbBlockReference
  2
#POLYLINE(92)
 10
29796.2890101
 20
20226.4355913
 30
0.0
  0
INSERT
  5
2A5
330
1F
100
AcDbEntity
  8
main_beam_width
100
AcDbBlockReference
  2
#POLYLINE(93)
 10
29796.2890101
 20
20226.4355913
 30
0.0
  0
INSERT
  5
2AA
330
1F
100
AcDbEntity
  8
main_beam_width
100
AcDbBlockReference
  2
#POLYLINE(94)
 10
29796.2890101
 20
20226.4355913
 30
0.0
  0
INSERT
  5
2AF
330
1F
100
AcDbEntity
  8
main_beam_width
100
AcDbBlockReference
  2
#POLYLINE(95)
 10
29796.2890101
 20
20226.4355913
 30
0.0
  0
INSERT
  5
2B4
330
1F
100
AcDbEntity
  8
main_beam_width
100
AcDbBlockReference
  2
#POLYLINE(96)
 10
29796.2890101
 20
20226.4355913
 30
0.0
  0
INSERT
  5
2B9
330
1F
100
AcDbEntity
  8
main_beam_width
100
AcDbBlockReference
  2
#POLYLINE(97)
 10
29796.2890101
 20
20226.4355913
 30
0.0
  0
INSERT
  5
2BE
330
1F
100
AcDbEntity
  8
main_beam_width
100
AcDbBlockReference
  2
#POLYLINE(98)
 10
29796.2890101
 20
20226.4355913
 30
0.0
  0
INSERT
  5
2C3
330
1F
100
AcDbEntity
  8
main_beam_width
100
AcDbBlockReference
  2
#POLYLINE(99)
 10
29796.2890101
 20
20226.4355913
 30
0.0
  0
INSERT
  5
2C8
330
1F
100
AcDbEntity
  8
main_beam_width
100
AcDbBlockReference
  2
#POLYLINE(100)
 10
29796.2890101
 20
20226.4355913
 30
0.0
  0
INSERT
  5
2CD
330
1F
100
AcDbEntity
  8
main_beam_width
100
AcDbBlockReference
  2
#POLYLINE(101)
 10
29796.2890101
 20
20226.4355913
 30
0.0
  0
INSERT
  5
2D2
330
1F
100
AcDbEntity
  8
main_beam_width
100
AcDbBlockReference
  2
#POLYLINE(102)
 10
29796.2890101
 20
20226.4355913
 30
0.0
  0
INSERT
  5
2D7
330
1F
100
AcDbEntity
  8
main_beam_width
100
AcDbBlockReference
  2
#POLYLINE(103)
 10
29796.2890101
 20
20226.4355913
 30
0.0
  0
INSERT
  5
2DC
330
1F
100
AcDbEntity
  8
main_beam_width
100
AcDbBlockReference
  2
#POLYLINE(104)
 10
29796.2890101
 20
20226.4355913
 30
0.0
  0
INSERT
  5
2E1
330
1F
100
AcDbEntity
  8
main_beam_width
100
AcDbBlockReference
  2
#POLYLINE(105)
 10
29796.2890101
 20
20226.4355913
 30
0.0
  0
INSERT
  5
2E6
330
1F
100
AcDbEntity
  8
main_beam_width
100
AcDbBlockReference
  2
#POLYLINE(106)
 10
29796.2890101
 20
20226.4355913
 30
0.0
  0
INSERT
  5
2EB
330
1F
100
AcDbEntity
  8
main_beam_width
100
AcDbBlockReference
  2
#POLYLINE(107)
 10
29796.2890101
 20
20226.4355913
 30
0.0
  0
INSERT
  5
2F0
330
1F
100
AcDbEntity
  8
main_beam_width
100
AcDbBlockReference
  2
#POLYLINE(108)
 10
29796.2890101
 20
20226.4355913
 30
0.0
  0
INSERT
  5
2F5
330
1F
100
AcDbEntity
  8
main_beam_width
100
AcDbBlockReference
  2
#POLYLINE(109)
 10
29796.2890101
 20
20226.4355913
 30
0.0
  0
INSERT
  5
2FA
330
1F
100
AcDbEntity
  8
main_beam_width
100
AcDbBlockReference
  2
#POLYLINE(110)
 10
29796.2890101
 20
20226.4355913
 30
0.0
  0
INSERT
  5
2FF
330
1F
100
AcDbEntity
  8
main_beam_width
100
AcDbBlockReference
  2
#POLYLINE(111)
 10
29796.2890101
 20
20226.4355913
 30
0.0
  0
INSERT
  5
304
330
1F
100
AcDbEntity
  8
main_beam_width
100
AcDbBlockReference
  2
#POLYLINE(112)
 10
29796.2890101
 20
20226.4355913
 30
0.0
  0
INSERT
  5
309
330
1F
100
AcDbEntity
  8
main_beam_width
100
AcDbBlockReference
  2
#POLYLINE(113)
 10
29796.2890101
 20
20226.4355913
 30
0.0
  0
INSERT
  5
30E
330
1F
100
AcDbEntity
  8
main_beam_width
100
AcDbBlockReference
  2
#POLYLINE(114)
 10
29796.2890101
 20
20226.4355913
 30
0.0
  0
INSERT
  5
313
330
1F
100
AcDbEntity
  8
main_beam_width
100
AcDbBlockReference
  2
#POLYLINE(115)
 10
29796.2890101
 20
20226.4355913
 30
0.0
  0
INSERT
  5
318
330
1F
100
AcDbEntity
  8
main_beam_width
100
AcDbBlockReference
  2
#POLYLINE(116)
 10
29796.2890101
 20
20226.4355913
 30
0.0
  0
INSERT
  5
31D
330
1F
100
AcDbEntity
  8
main_beam_width
100
AcDbBlockReference
  2
#POLYLINE(117)
 10
29796.2890101
 20
20226.4355913
 30
0.0
  0
INSERT
  5
322
330
1F
100
AcDbEntity
  8
main_beam_width
100
AcDbBlockReference
  2
#POLYLINE(118)
 10
29796.2890101
 20
20226.4355913
 30
0.0
  0
INSERT
  5
327
330
1F
100
AcDbEntity
  8
main_beam_width
100
AcDbBlockReference
  2
#POLYLINE(119)
 10
29796.2890101
 20
20226.4355913
 30
0.0
  0
INSERT
  5
32C
330
1F
100
AcDbEntity
  8
main_beam_width
100
AcDbBlockReference
  2
#POLYLINE(120)
 10
29796.2890101
 20
20226.4355913
 30
0.0
  0
INSERT
  5
331
330
1F
100
AcDbEntity
  8
main_beam_width
100
AcDbBlockReference
  2
#POLYLINE(121)
 10
29796.2890101
 20
20226.4355913
 30
0.0
  0
INSERT
  5
336
330
1F
100
AcDbEntity
  8
main_beam_width
100
AcDbBlockReference
  2
#POLYLINE(122)
 10
29796.2890101
 20
20226.4355913
 30
0.0
  0
INSERT
  5
33B
330
1F
100
AcDbEntity
  8
main_beam_width
100
AcDbBlockReference
  2
#POLYLINE(123)
 10
29796.2890101
 20
20226.4355913
 30
0.0
  0
INSERT
  5
340
330
1F
100
AcDbEntity
  8
main_beam_width
100
AcDbBlockReference
  2
#POLYLINE(124)
 10
29796.2890101
 20
20226.4355913
 30
0.0
  0
INSERT
  5
345
330
1F
100
AcDbEntity
  8
main_beam_width
100
AcDbBlockReference
  2
#POLYLINE(125)
 10
29796.2890101
 20
20226.4355913
 30
0.0
  0
INSERT
  5
34A
330
1F
100
AcDbEntity
  8
main_beam_width
100
AcDbBlockReference
  2
#POLYLINE(126)
 10
29796.2890101
 20
20226.4355913
 30
0.0
  0
INSERT
  5
34F
330
1F
100
AcDbEntity
  8
main_beam_width
100
AcDbBlockReference
  2
#POLYLINE(127)
 10
29796.2890101
 20
20226.4355913
 30
0.0
  0
INSERT
  5
354
330
1F
100
AcDbEntity
  8
main_beam_width
100
AcDbBlockReference
  2
#POLYLINE(128)
 10
29796.2890101
 20
20226.4355913
 30
0.0
  0
INSERT
  5
359
330
1F
100
AcDbEntity
  8
main_beam_width
100
AcDbBlockReference
  2
#POLYLINE(129)
 10
29796.2890101
 20
20226.4355913
 30
0.0
  0
INSERT
  5
35E
330
1F
100
AcDbEntity
  8
main_beam_width
100
AcDbBlockReference
  2
#POLYLINE(130)
 10
29796.2890101
 20
20226.4355913
 30
0.0
  0
INSERT
  5
363
330
1F
100
AcDbEntity
  8
main_beam_width
100
AcDbBlockReference
  2
#POLYLINE(131)
 10
29796.2890101
 20
20226.4355913
 30
0.0
  0
INSERT
  5
368
330
1F
100
AcDbEntity
  8
main_beam_width
100
AcDbBlockReference
  2
#POLYLINE(132)
 10
29796.2890101
 20
20226.4355913
 30
0.0
  0
INSERT
  5
36D
330
1F
100
AcDbEntity
  8
main_beam_width
100
AcDbBlockReference
  2
#POLYLINE(133)
 10
29796.2890101
 20
20226.4355913
 30
0.0
  0
LINE
  5
370
330
1F
100
AcDbEntity
  8
aux_beam
100
AcDbLine
 10
30036.668439795
 20
15642.42317432
 30
0.0
 11
29545.347729079
 21
4541.566159
 31
0.0
  0
LINE
  5
371
330
1F
100
AcDbEntity
  8
aux_beam
100
AcDbLine
 10
29828.6086111615
 20
4532.646685899999
 30
0.0
 11
30036.668439795
 21
15642.42317432
 31
0.0
  0
LINE
  5
372
330
1F
100
AcDbEntity
  8
aux_beam
100
AcDbLine
 10
25095.39396254
 20
20518.668873473
 30
0.0
 11
10096.0356216
 21
20657.410938815
 31
0.0
  0
LINE
  5
373
330
1F
100
AcDbEntity
  8
aux_beam
100
AcDbLine
 10
29831.8056633741
 20
20261.9364124491
 30
0.0
 11
14031.9205298
 21
20298.3671722372
 31
0.0
  0
LINE
  5
374
330
1F
100
AcDbEntity
  8
aux_beam
100
AcDbLine
 10
29884.5054003141
 20
20201.4125359987
 30
0.0
 11
29828.6086111615
 21
4532.646685899999
 31
0.0
  0
LINE
  5
375
330
1F
100
AcDbEntity
  8
aux_beam
100
AcDbLine
 10
14031.9205298
 20
20298.3671722372
 30
0.0
 11
25095.39396254
 21
20518.668873473
 31
0.0
  0
LINE
  5
376
330
1F
100
AcDbEntity
  8
aux_beam
100
AcDbLine
 10
29788.96026768349
 20
43298.4143898
 30
0.0
 11
29831.8056633741
 21
20261.9364124491
 31
0.0
  0
LINE
  5
377
330
1F
100
AcDbEntity
  8
aux_beam
100
AcDbLine
 10
29788.6984530195
 20
43298.414504
 30
0.0
 11
29788.82934996788
 21
43448.4113198
 31
0.0
  0
LINE
  5
378
330
1F
100
AcDbEntity
  8
aux_beam
100
AcDbLine
 10
29831.8056633741
 20
20261.9364124491
 30
0.0
 11
29856.8358816896
 21
20173.8324773583
 31
0.0
  0
LINE
  5
379
330
1F
100
AcDbEntity
  8
aux_beam
100
AcDbLine
 10
29788.82934996788
 20
43448.4113198
 30
0.0
 11
29788.96026768349
 21
43298.4143898
 31
0.0
  0
LINE
  5
37A
330
1F
100
AcDbEntity
  8
main_beam
100
AcDbLine
 10
30061.350902266
 20
800.0001193999997
 30
0.0
 11
30059.562018977
 21
700.0331770000012
 31
0.0
  0
LINE
  5
37B
330
1F
100
AcDbEntity
  8
main_beam
100
AcDbLine
 10
30061.350902267
 20
800.0001193999997
 30
0.0
 11
30059.562018977
 21
700.0331770000012
 31
0.0
  0
LINE
  5
37C
330
1F
100
AcDbEntity
  8
main_beam
100
AcDbLine
 10
29884.5054003141
 20
20201.4125359987
 30
0.0
 11
56153.4050324
 21
20210.0548628164
 31
0.0
  0
LINE
  5
37D
330
1F
100
AcDbEntity
  8
main_beam
100
AcDbLine
 10
56153.4050324
 20
20210.0548628164
 30
0.0
 11
29884.5054003141
 21
20201.4125359987
 31
0.0
  0
LINE
  5
37E
330
1F
100
AcDbEntity
  8
main_beam
100
AcDbLine
 10
14032.5177463
 20
20238.6503130848
 30
0.0
 11
29796.28901009987
 21
20226.43559129987
 31
0.0
  0
LINE
  5
37F
330
1F
100
AcDbEntity
  8
main_beam
100
AcDbLine
 10
29796.28901009987
 20
20226.43559129987
 30
0.0
 11
29788.6984530195
 21
43298.414504
 31
0.0
  0
LINE
  5
380
330
1F
100
AcDbEntity
  8
main_beam
100
AcDbLine
 10
29821.2338062723
 20
20138.3455091514
 30
0.0
 11
29843.5277896949
 21
4532.484850999999
 31
0.0
  0
LINE
  5
381
330
1F
100
AcDbEntity
  8
main_beam
100
AcDbLine
 10
29884.5054003141
 20
20201.4125359987
 30
0.0
 11
29796.28901009987
 21
20226.43559129987
 31
0.0
  0
LINE
  5
382
330
1F
100
AcDbEntity
  8
main_beam
100
AcDbLine
 10
29796.28901009987
 20
20226.43559129987
 30
0.0
 11
29821.2338062723
 21
20138.3455091514
 31
0.0
  0
LINE
  5
383
330
1F
100
AcDbEntity
  8
main_beam
100
AcDbLine
 10
9234.281819700002
 20
20465.737307679
 30
0.0
 11
10234.1990151
 21
20452.868652568
 31
0.0
  0
LINE
  5
384
330
1F
100
AcDbEntity
  8
main_beam
100
AcDbLine
 10
29796.28901009984
 20
20226.43559129984
 30
0.0
 11
29821.2338062723
 21
20138.3455091514
 31
0.0
  0
LINE
  5
385
330
1F
100
AcDbEntity
  8
main_beam
100
AcDbLine
 10
56153.4050324
 20
20210.0548628164
 30
0.0
 11
56303.4018482
 21
20210.0548628164
 31
0.0
  0
LINE
  5
386
330
1F
100
AcDbEntity
  8
main_beam
100
AcDbLine
 10
30093.779839044
 20
15641.17130416
 30
0.0
 11
30061.569371071
 21
899.9828276000007
 31
0.0
  0
LINE
  5
387
330
1F
100
AcDbEntity
  8
main_beam
100
AcDbLine
 10
56303.4018482
 20
20210.0548628164
 30
0.0
 11
56153.4050324
 21
20210.0548628164
 31
0.0
  0
LINE
  5
388
330
1F
100
AcDbEntity
  8
main_beam
100
AcDbLine
 10
29788.6984530195
 20
43298.414504
 30
0.0
 11
29788.6984530195
 21
43448.4113198
 31
0.0
  0
LINE
  5
389
330
1F
100
AcDbEntity
  8
main_beam
100
AcDbLine
 10
30061.569371071
 20
899.9828276000007
 30
0.0
 11
30061.350902267
 21
800.0001193999997
 31
0.0
  0
LINE
  5
38A
330
1F
100
AcDbEntity
  8
main_beam
100
AcDbLine
 10
30061.56937107
 20
899.9828276000007
 30
0.0
 11
30061.350902266
 21
800.0001193999997
 31
0.0
  0
LINE
  5
38B
330
1F
100
AcDbEntity
  8
main_beam
100
AcDbLine
 10
30093.779839044
 20
15641.17130416
 30
0.0
 11
30061.56937107
 21
899.9828276000007
 31
0.0
  0
LINE
  5
38C
330
1F
100
AcDbEntity
  8
main_beam
100
AcDbLine
 10
10234.1990151
 20
20452.868652568
 30
0.0
 11
10334.1815592
 21
20453.152480379
 31
0.0
  0
LINE
  5
38D
330
1F
100
AcDbEntity
  8
main_beam
100
AcDbLine
 10
25095.61044175
 20
20495.056835661
 30
0.0
 11
14032.5177463
 21
20238.6503130848
 31
0.0
  0
LINE
  5
38E
330
1F
100
AcDbEntity
  8
main_beam
100
AcDbLine
 10
29788.6984530195
 20
43298.414504
 30
0.0
 11
29796.28901009984
 21
20226.43559129984
 31
0.0
  0
LINE
  5
38F
330
1F
100
AcDbEntity
  8
main_beam
100
AcDbLine
 10
29843.5277896949
 20
4532.484850999999
 30
0.0
 11
30093.779839044
 21
15641.17130416
 31
0.0
  0
LINE
  5
390
330
1F
100
AcDbEntity
  8
main_beam
100
AcDbLine
 10
29843.527789695
 20
4532.484850999999
 30
0.0
 11
30093.779839044
 21
15641.17130416
 31
0.0
  0
LINE
  5
391
330
1F
100
AcDbEntity
  8
main_beam
100
AcDbLine
 10
56153.4050324
 20
20210.0548628164
 30
0.0
 11
56003.4082247
 21
20210.0055146727
 31
0.0
  0
LINE
  5
392
330
1F
100
AcDbEntity
  8
main_beam
100
AcDbLine
 10
10334.1815592
 20
20453.152480379
 30
0.0
 11
25095.61044175
 21
20495.056835661
 31
0.0
  0
LINE
  5
393
330
1F
100
AcDbEntity
  8
main_beam
100
AcDbLine
 10
29821.2338062723
 20
20138.3455091514
 30
0.0
 11
29843.527789695
 21
4532.484850999999
 31
0.0
  0
LINE
  5
394
330
1F
100
AcDbEntity
  8
main_beam
100
AcDbLine
 10
29796.28901009987
 20
20226.43559129987
 30
0.0
 11
29884.5054003141
 21
20201.4125359987
 31
0.0
  0
TEXT
  5
395
330
1F
100
AcDbEntity
  8
text
100
AcDbText
 10
5238.495742999999
 20
20513.960087036
 30
0.0
 40
7.5
  1
MMT2
 41
0.98
  7
VCDSTYLE03
100
AcDbText
  0
TEXT
  5
396
330
1F
100
AcDbEntity
  8
text
100
AcDbText
 10
8453.448882699999
 20
20159.1925238426
 30
0.0
 40
7.5
  1
MMT1
 41
0.98
  7
VCDSTYLE03
100
AcDbText
  0
TEXT
  5
397
330
1F
100
AcDbEntity
  8
text
100
AcDbText
 10
2277.153510100001
 20
46773.3052492
 30
0.0
 40
7.5
  1
MCe
 41
0.98
  7
VCDSTYLE03
100
AcDbText
  0
TEXT
  5
398
330
1F
100
AcDbEntity
  8
text
100
AcDbText
 10
2537.786209599999
 20
20349.083122074
 30
0.0
 40
7.500000000000014
  1
MCo
 41
0.98
  7
VCDSTYLE03
100
AcDbText
  0
TEXT
  5
399
330
1F
100
AcDbEntity
  8
text
100
AcDbText
 10
2016.472801
 20
20349.083131761
 30
0.0
 40
7.5
  1
MCi
 41
0.98
  7
VCDSTYLE03
100
AcDbText
  0
TEXT
  5
39A
330
1F
100
AcDbEntity
  8
text
100
AcDbText
 10
29719.5109530267
 20
43354.664504
 30
0.0
 40
37.5
  1
ITMY
 41
0.98
  7
VCDSTYLE03
100
AcDbText
  0
TEXT
  5
39B
330
1F
100
AcDbEntity
  8
text
100
AcDbText
 10
56159.2175324
 20
20191.3048628095
 30
0.0
 40
37.5
  1
ITMX
 41
0.98
  7
VCDSTYLE03
100
AcDbText
  0
TEXT
  5
39C
330
1F
100
AcDbEntity
  8
text
100
AcDbText
 10
25114.52153448
 20
20483.240141968
 30
0.0
 40
25.0
  1
PR2
 41
0.98
  7
VCDSTYLE03
100
AcDbText
  0
TEXT
  5
39D
330
1F
100
AcDbEntity
  8
text
100
AcDbText
 10
13949.2094114
 20
20225.59389260923
 30
0.0
 40
25.0
  1
PR3
 41
0.98
  7
VCDSTYLE03
100
AcDbText
  0
TEXT
  5
39E
330
1F
100
AcDbEntity
  8
text
100
AcDbText
 10
10250.5738137
 20
20440.510590679
 30
0.0
 40
25.0
  1
PRM
 41
0.98
  7
VCDSTYLE03
100
AcDbText
  0
TEXT
  5
39F
330
1F
100
AcDbEntity
  8
text
100
AcDbText
 10
30060.804869053
 20
15681.28377746
 30
0.0
 40
25.0
  1
SR2
 41
0.98
  7
VCDSTYLE03
100
AcDbText
  0
TEXT
  5
3A0
330
1F
100
AcDbEntity
  8
text
100
AcDbText
 10
30027.835155299
 20
837.5
 30
0.0
 40
25.0
  1
SRM
 41
0.98
  7
VCDSTYLE03
100
AcDbText
  0
TEXT
  5
3A1
330
1F
100
AcDbEntity
  8
text
100
AcDbText
 10
29807.66697515273
 20
20188.1450152635
 30
0.0
 40
20.0
  1
BS
 41
0.98
  7
VCDSTYLE03
100
AcDbText
  0
TEXT
  5
3A2
330
1F
100
AcDbEntity
  8
text
100
AcDbText
 10
29719.5109530118
 20
3043504.6581313
 30
0.0
 40
37.5
  1
ETMY
 41
0.98
  7
VCDSTYLE03
100
AcDbText
  0
TEXT
  5
3A3
330
1F
100
AcDbEntity
  8
text
100
AcDbText
 10
3056309.2111601
 20
20191.3048628165
 30
0.0
 40
37.5
  1
ETMX
 41
0.98
  7
VCDSTYLE03
100
AcDbText
  0
TEXT
  5
3A4
330
1F
100
AcDbEntity
  8
text
100
AcDbText
 10
29809.37872593871
 20
4470.3011642
 30
0.0
 40
25.0
  1
SR3
 41
0.98
  7
VCDSTYLE03
100
AcDbText
  0
LINE
  5
3A5
330
1F
100
AcDbEntity
  8
input_beam
100
AcDbLine
 10
5267.2151056
 20
20516.792348613
 30
0.0
 11
5237.428810700003
 21
20519.636354765
 31
0.0
  0
LINE
  5
3A6
330
1F
100
AcDbEntity
  8
input_beam
100
AcDbLine
 10
2004.962315100001
 20
20354.331290391
 30
0.0
 11
2037.217010100001
 21
20363.3893883
 31
0.0
  0
LINE
  5
3A7
330
1F
100
AcDbEntity
  8
input_beam
100
AcDbLine
 10
2037.264555600002
 20
20363.341390365
 30
0.0
 11
2537.168564200001
 21
20363.340481486
 31
0.0
  0
LINE
  5
3A8
330
1F
100
AcDbEntity
  8
input_beam
100
AcDbLine
 10
6.008058600000368
 20
20289.6638294668
 30
0.0
 11
2004.962315100001
 21
20354.331290391
 31
0.0
  0
LINE
  5
3A9
330
1F
100
AcDbEntity
  8
input_beam
100
AcDbLine
 10
5267.2151056
 20
20516.792348613
 30
0.0
 11
10234.1990151
 21
20452.868652568
 31
0.0
  0
LINE
  5
3AA
330
1F
100
AcDbEntity
  8
input_beam
100
AcDbLine
 10
10234.1990151
 20
20452.868652568
 30
0.0
 11
10334.1815592
 21
20453.152480379
 31
0.0
  0
LINE
  5
3AB
330
1F
100
AcDbEntity
  8
input_beam
100
AcDbLine
 10
5237.428810700003
 20
20519.636354765
 30
0.0
 11
4243.250079400001
 21
20627.379800582
 31
0.0
  0
LINE
  5
3AC
330
1F
100
AcDbEntity
  8
input_beam
100
AcDbLine
 10
8452.1852573
 20
20164.0214486842
 30
0.0
 11
5267.2151056
 21
20516.792348613
 31
0.0
  0
LINE
  5
3AD
330
1F
100
AcDbEntity
  8
input_beam
100
AcDbLine
 10
2537.217010100001
 20
20363.3893883
 30
0.0
 11
2569.471709700003
 21
20354.3312752
 31
0.0
  0
LINE
  5
3AE
330
1F
100
AcDbEntity
  8
input_beam
100
AcDbLine
 10
2287.241010100002
 20
46762.0887613
 30
0.0
 11
2037.264555600002
 21
20363.341390365
 31
0.0
  0
LINE
  5
3AF
330
1F
100
AcDbEntity
  8
input_beam
100
AcDbLine
 10
2537.217010100001
 20
20363.3893883
 30
0.0
 11
2287.241010100002
 21
46762.0887613
 31
0.0
  0
LINE
  5
3B0
330
1F
100
AcDbEntity
  8
input_beam
100
AcDbLine
 10
2569.471709700003
 20
20354.3312752
 30
0.0
 11
8452.1852573
 21
20164.0214486842
 31
0.0
  0
LINE
  5
3B1
330
1F
100
AcDbEntity
  8
input_beam
100
AcDbLine
 10
8452.1852573
 20
20164.0214486842
 30
0.0
 11
8482.291879600001
 21
20162.6827502769
 31
0.0
  0
LINE
  5
3B2
330
1F
100
AcDbEntity
  8
Mirrors
100
AcDbLine
 10
5234.022812700001
 20
20468.744275122
 30
0.0
 11
5240.700555700001
 21
20568.522438612
 31
0.0
  0
INSERT
  5
3B5
330
1F
100
AcDbEntity
  8
Mirrors
100
AcDbBlockReference
  2
#POLYLINE(134)
 10
29796.2890101
 20
20226.4355913
 30
0.0
  0
LINE
  5
3B8
330
1F
100
AcDbEntity
  8
Mirrors
100
AcDbLine
 10
5267.388056100001
 20
20566.876667162
 30
0.0
 11
5261.232923900003
 21
20467.066275181
 31
0.0
  0
LINE
  5
3B9
330
1F
100
AcDbEntity
  8
Mirrors
100
AcDbLine
 10
5240.700555700001
 20
20568.522438612
 30
0.0
 11
5270.382367900002
 21
20566.692013196
 31
0.0
  0
LINE
  5
3BA
330
1F
100
AcDbEntity
  8
Mirrors
100
AcDbLine
 10
5264.2272357
 20
20466.881621214
 30
0.0
 11
5234.022812700001
 21
20468.744275122
 31
0.0
  0
LINE
  5
3BB
330
1F
100
AcDbEntity
  8
Mirrors
100
AcDbLine
 10
8484.940959400003
 20
20211.8086166149
 30
0.0
 11
8479.555528500001
 21
20111.938481301
 31
0.0
  0
INSERT
  5
3BE
330
1F
100
AcDbEntity
  8
Mirrors
100
AcDbBlockReference
  2
#POLYLINE(135)
 10
29796.2890101
 20
20226.4355913
 30
0.0
  0
LINE
  5
3C1
330
1F
100
AcDbEntity
  8
Mirrors
100
AcDbLine
 10
8451.753644
 20
20113.924832847
 30
0.0
 11
8458.8801433
 21
20213.6705746541
 31
0.0
  0
LINE
  5
3C2
330
1F
100
AcDbEntity
  8
Mirrors
100
AcDbLine
 10
8479.555528500001
 20
20111.938481301
 30
0.0
 11
8448.761271800002
 21
20114.138627824
 31
0.0
  0
LINE
  5
3C3
330
1F
100
AcDbEntity
  8
Mirrors
100
AcDbLine
 10
8455.887771000002
 20
20213.884369631
 30
0.0
 11
8484.940959400003
 21
20211.8086166149
 31
0.0
  0
LINE
  5
3C4
330
1F
100
AcDbEntity
  8
Mirrors
100
AcDbLine
 10
2237.241010100002
 20
46789.8722021
 30
0.0
 11
2337.241010100002
 21
46794.2382964
 31
0.0
  0
INSERT
  5
3C7
330
1F
100
AcDbEntity
  8
Mirrors
100
AcDbBlockReference
  2
#POLYLINE(136)
 10
29796.2890101
 20
20226.4355913
 30
0.0
  0
LINE
  5
3CA
330
1F
100
AcDbEntity
  8
Mirrors
100
AcDbLine
 10
2337.241010100002
 20
46765.0552492
 30
0.0
 11
2237.241010100002
 21
46765.0552492
 31
0.0
  0
LINE
  5
3CB
330
1F
100
AcDbEntity
  8
Mirrors
100
AcDbLine
 10
2337.241010100002
 20
46794.2382964
 30
0.0
 11
2337.241010100002
 21
46762.0552492
 31
0.0
  0
LINE
  5
3CC
330
1F
100
AcDbEntity
  8
Mirrors
100
AcDbLine
 10
2237.241010100002
 20
46762.0552492
 30
0.0
 11
2237.241010100002
 21
46789.8722021
 31
0.0
  0
LINE
  5
3CD
330
1F
100
AcDbEntity
  8
Mirrors
100
AcDbLine
 10
2592.167024599999
 20
20379.335509168
 30
0.0
 11
2524.893793400002
 21
20305.2182025272
 31
0.0
  0
LINE
  5
3CE
330
1F
100
AcDbEntity
  8
Mirrors
100
AcDbLine
 10
2502.029456
 20
20327.86705677
 30
0.0
 11
2572.404564200002
 21
20398.91171983
 31
0.0
  0
LINE
  5
3CF
330
1F
100
AcDbEntity
  8
Mirrors
100
AcDbLine
 10
2504.160795900003
 20
20325.7558035244
 30
0.0
 11
2574.535904100001
 21
20396.800466585
 31
0.0
  0
LINE
  5
3D0
330
1F
100
AcDbEntity
  8
Mirrors
100
AcDbLine
 10
2524.893793400002
 20
20305.2182025272
 30
0.0
 11
2502.029456
 21
20327.86705677
 31
0.0
  0
LINE
  5
3D1
330
1F
100
AcDbEntity
  8
Mirrors
100
AcDbLine
 10
2572.404564200002
 20
20398.91171983
 30
0.0
 11
2592.167024599999
 21
20379.335509168
 31
0.0
  0
LINE
  5
3D2
330
1F
100
AcDbEntity
  8
Mirrors
100
AcDbLine
 10
2049.540173900001
 20
20305.2181913247
 30
0.0
 11
1982.2670101
 21
20379.335559121
 31
0.0
  0
LINE
  5
3D3
330
1F
100
AcDbEntity
  8
Mirrors
100
AcDbLine
 10
2002.029488300002
 20
20398.911751818
 30
0.0
 11
2072.4045319
 21
20327.867024782
 31
0.0
  0
LINE
  5
3D4
330
1F
100
AcDbEntity
  8
Mirrors
100
AcDbLine
 10
1999.8981465
 20
20396.80050051
 30
0.0
 11
2070.273190100001
 21
20325.7557734745
 31
0.0
  0
LINE
  5
3D5
330
1F
100
AcDbEntity
  8
Mirrors
100
AcDbLine
 10
1982.2670101
 20
20379.335559121
 30
0.0
 11
2002.029488300002
 21
20398.911751818
 31
0.0
  0
LINE
  5
3D6
330
1F
100
AcDbEntity
  8
Mirrors
100
AcDbLine
 10
2072.4045319
 20
20327.867024782
 30
0.0
 11
2049.540173900001
 21
20305.2181913247
 31
0.0
  0
LINE
  5
3D7
330
1F
100
AcDbEntity
  8
Mirrors
100
AcDbLine
 10
29898.698453027
 20
43298.3665074
 30
0.0
 11
29678.698453027
 21
43298.4625006
 31
0.0
  0
INSERT
  5
3DA
330
1F
100
AcDbEntity
  8
Mirrors
100
AcDbBlockReference
  2
#POLYLINE(137)
 10
29796.2890101
 20
20226.4355913
 30
0.0
  0
LINE
  5
3DD
330
1F
100
AcDbEntity
  8
Mirrors
100
AcDbLine
 10
29678.698453027
 20
43433.414504
 30
0.0
 11
29898.698453027
 21
43433.414504
 31
0.0
  0
LINE
  5
3DE
330
1F
100
AcDbEntity
  8
Mirrors
100
AcDbLine
 10
29678.698453027
 20
43298.4625006
 30
0.0
 11
29678.698453027
 21
43448.414504
 31
0.0
  0
LINE
  5
3DF
330
1F
100
AcDbEntity
  8
Mirrors
100
AcDbLine
 10
29898.698453027
 20
43448.414504
 30
0.0
 11
29898.698453027
 21
43298.3665074
 31
0.0
  0
LINE
  5
3E0
330
1F
100
AcDbEntity
  8
Mirrors
100
AcDbLine
 10
56153.3570359
 20
20100.054862809
 30
0.0
 11
56153.453029
 21
20320.0548628095
 31
0.0
  0
INSERT
  5
3E3
330
1F
100
AcDbEntity
  8
Mirrors
100
AcDbBlockReference
  2
#POLYLINE(138)
 10
29796.2890101
 20
20226.4355913
 30
0.0
  0
LINE
  5
3E6
330
1F
100
AcDbEntity
  8
Mirrors
100
AcDbLine
 10
56288.4050324
 20
20320.0548628095
 30
0.0
 11
56288.4050324
 21
20100.054862809
 31
0.0
  0
LINE
  5
3E7
330
1F
100
AcDbEntity
  8
Mirrors
100
AcDbLine
 10
56153.453029
 20
20320.0548628095
 30
0.0
 11
56303.4050324
 21
20320.0548628095
 31
0.0
  0
LINE
  5
3E8
330
1F
100
AcDbEntity
  8
Mirrors
100
AcDbLine
 10
56303.4050324
 20
20100.054862809
 30
0.0
 11
56153.3570359
 21
20100.054862809
 31
0.0
  0
LINE
  5
3E9
330
1F
100
AcDbEntity
  8
Mirrors
100
AcDbLine
 10
25192.15191425
 20
20621.323066752
 30
0.0
 11
25204.13269744
 21
20371.457748844
 31
0.0
  0
INSERT
  5
3EC
330
1F
100
AcDbEntity
  8
Mirrors
100
AcDbBlockReference
  2
#POLYLINE(139)
 10
29796.2890101
 20
20226.4355913
 30
0.0
  0
LINE
  5
3EF
330
1F
100
AcDbEntity
  8
Mirrors
100
AcDbLine
 10
25109.77558196
 20
20370.230500893
 30
0.0
 11
25106.52425282
 21
20620.209357717
 31
0.0
  0
LINE
  5
3F0
330
1F
100
AcDbEntity
  8
Mirrors
100
AcDbLine
 10
25204.13269744
 20
20371.457748844
 30
0.0
 11
25099.77642769
 21
20370.100447727
 31
0.0
  0
LINE
  5
3F1
330
1F
100
AcDbEntity
  8
Mirrors
100
AcDbLine
 10
25096.52509854
 20
20620.079304551
 30
0.0
 11
25192.15191425
 21
20621.323066752
 31
0.0
  0
LINE
  5
3F2
330
1F
100
AcDbEntity
  8
Mirrors
100
AcDbLine
 10
13938.6021987
 20
20112.590682267
 30
0.0
 11
13927.0728948
 21
20362.477239348
 31
0.0
  0
INSERT
  5
3F5
330
1F
100
AcDbEntity
  8
Mirrors
100
AcDbBlockReference
  2
#POLYLINE(140)
 10
29796.2890101
 20
20226.4355913
 30
0.0
  0
LINE
  5
3F8
330
1F
100
AcDbEntity
  8
Mirrors
100
AcDbLine
 10
14021.4320737
 20
20363.533999714
 30
0.0
 11
14024.2317327
 21
20113.549676387
 31
0.0
  0
LINE
  5
3F9
330
1F
100
AcDbEntity
  8
Mirrors
100
AcDbLine
 10
13927.0728948
 20
20362.477239348
 30
0.0
 11
14031.4314466
 21
20363.645986074
 31
0.0
  0
LINE
  5
3FA
330
1F
100
AcDbEntity
  8
Mirrors
100
AcDbLine
 10
14034.2311056
 20
20113.661662747
 30
0.0
 11
13938.6021987
 21
20112.590682267
 31
0.0
  0
LINE
  5
3FB
330
1F
100
AcDbEntity
  8
Mirrors
100
AcDbLine
 10
10238.918939
 20
20327.8815477
 30
0.0
 11
10229.4790913
 21
20577.855757436
 31
0.0
  0
INSERT
  5
3FE
330
1F
100
AcDbEntity
  8
Mirrors
100
AcDbBlockReference
  2
#POLYLINE(141)
 10
29796.2890101
 20
20226.4355913
 30
0.0
  0
LINE
  5
401
330
1F
100
AcDbEntity
  8
Mirrors
100
AcDbLine
 10
10323.8438072
 20
20578.123637505
 30
0.0
 11
10324.5534978
 21
20328.124644829
 31
0.0
  0
LINE
  5
402
330
1F
100
AcDbEntity
  8
Mirrors
100
AcDbLine
 10
10229.4790913
 20
20577.855757436
 30
0.0
 11
10333.8437669
 21
20578.152025127
 31
0.0
  0
LINE
  5
403
330
1F
100
AcDbEntity
  8
Mirrors
100
AcDbLine
 10
10334.5534575
 20
20328.153032451
 30
0.0
 11
10238.918939
 21
20327.8815477
 31
0.0
  0
LINE
  5
404
330
1F
100
AcDbEntity
  8
Mirrors
100
AcDbLine
 10
29970.003187148
 20
15740.95946268
 30
0.0
 11
30220.091962185
 21
15746.60046074
 31
0.0
  0
INSERT
  5
407
330
1F
100
AcDbEntity
  8
Mirrors
100
AcDbBlockReference
  2
#POLYLINE(142)
 10
29796.2890101
 20
20226.4355913
 30
0.0
  0
LINE
  5
40A
330
1F
100
AcDbEntity
  8
Mirrors
100
AcDbLine
 10
30218.926165193
 20
15652.24256603
 30
0.0
 11
29968.945243932
 21
15655.33109409
 31
0.0
  0
LINE
  5
40B
330
1F
100
AcDbEntity
  8
Mirrors
100
AcDbLine
 10
30220.091962185
 20
15746.60046074
 30
0.0
 11
30218.80262407
 21
15642.24332918
 31
0.0
  0
LINE
  5
40C
330
1F
100
AcDbEntity
  8
Mirrors
100
AcDbLine
 10
29968.821702809
 20
15645.33185724
 30
0.0
 11
29970.003187148
 21
15740.95946268
 31
0.0
  0
LINE
  5
40D
330
1F
100
AcDbEntity
  8
Mirrors
100
AcDbLine
 10
30186.36014186
 20
804.0920726000004
 30
0.0
 11
29936.341662672
 21
795.908166199999
 31
0.0
  0
INSERT
  5
410
330
1F
100
AcDbEntity
  8
Mirrors
100
AcDbBlockReference
  2
#POLYLINE(143)
 10
29796.2890101
 20
20226.4355913
 30
0.0
  0
LINE
  5
413
330
1F
100
AcDbEntity
  8
Mirrors
100
AcDbLine
 10
29936.547856132
 20
890.2730370999998
 30
0.0
 11
30186.54725932
 21
889.726771900001
 31
0.0
  0
LINE
  5
414
330
1F
100
AcDbEntity
  8
Mirrors
100
AcDbLine
 10
29936.341662672
 20
795.908166199999
 30
0.0
 11
29936.569706738
 21
900.2730131999997
 31
0.0
  0
LINE
  5
415
330
1F
100
AcDbEntity
  8
Mirrors
100
AcDbLine
 10
30186.569109926
 20
899.7267481000017
 30
0.0
 11
30186.36014186
 21
804.0920726000004
 31
0.0
  0
LINE
  5
416
330
1F
100
AcDbEntity
  8
Mirrors
100
AcDbLine
 10
29987.412723067
 20
20303.9871428999
 30
0.0
 11
29718.2771573438
 21
20035.721735554
 31
0.0
  0
LINE
  5
417
330
1F
100
AcDbEntity
  8
Mirrors
100
AcDbLine
 10
29661.908773927
 20
20092.1152573
 30
0.0
 11
29930.669246273
 21
20360.7559253
 31
0.0
  0
LINE
  5
418
330
1F
100
AcDbEntity
  8
Mirrors
100
AcDbLine
 10
29667.564366937
 20
20086.457142092
 30
0.0
 11
29936.324839284
 21
20355.097810093
 31
0.0
  0
LINE
  5
419
330
1F
100
AcDbEntity
  8
Mirrors
100
AcDbLine
 10
29718.2771573438
 20
20035.721735554
 30
0.0
 11
29661.908773927
 21
20092.1152573
 31
0.0
  0
LINE
  5
41A
330
1F
100
AcDbEntity
  8
Mirrors
100
AcDbLine
 10
29930.669246273
 20
20360.7559253
 30
0.0
 11
29987.412723067
 21
20303.9871428999
 31
0.0
  0
LINE
  5
41B
330
1F
100
AcDbEntity
  8
Mirrors
100
AcDbLine
 10
29678.698453012
 20
3043597.9281713
 30
0.0
 11
29898.698453012
 21
3043598.8881013
 31
0.0
  0
INSERT
  5
41E
330
1F
100
AcDbEntity
  8
Mirrors
100
AcDbBlockReference
  2
#POLYLINE(144)
 10
29796.2890101
 20
20226.4355913
 30
0.0
  0
LINE
  5
421
330
1F
100
AcDbEntity
  8
Mirrors
100
AcDbLine
 10
29898.698453012
 20
3043463.4081313
 30
0.0
 11
29678.698453012
 21
3043463.4081313
 31
0.0
  0
LINE
  5
422
330
1F
100
AcDbEntity
  8
Mirrors
100
AcDbLine
 10
29898.698453012
 20
3043598.8881013
 30
0.0
 11
29898.698453012
 21
3043448.4081313
 31
0.0
  0
LINE
  5
423
330
1F
100
AcDbEntity
  8
Mirrors
100
AcDbLine
 10
29678.698453012
 20
3043448.4081313
 30
0.0
 11
29678.698453012
 21
3043597.9281713
 31
0.0
  0
LINE
  5
424
330
1F
100
AcDbEntity
  8
Mirrors
100
AcDbLine
 10
3056452.9187001
 20
20320.0548628165
 30
0.0
 11
3056453.8786301
 21
20100.054862817
 31
0.0
  0
INSERT
  5
427
330
1F
100
AcDbEntity
  8
Mirrors
100
AcDbBlockReference
  2
#POLYLINE(145)
 10
29796.2890101
 20
20226.4355913
 30
0.0
  0
LINE
  5
42A
330
1F
100
AcDbEntity
  8
Mirrors
100
AcDbLine
 10
3056318.3986601
 20
20100.054862817
 30
0.0
 11
3056318.3986601
 21
20320.0548628165
 31
0.0
  0
LINE
  5
42B
330
1F
100
AcDbEntity
  8
Mirrors
100
AcDbLine
 10
3056453.8786301
 20
20100.054862817
 30
0.0
 11
3056303.3986601
 21
20100.054862817
 31
0.0
  0
LINE
  5
42C
330
1F
100
AcDbEntity
  8
Mirrors
100
AcDbLine
 10
3056303.3986601
 20
20320.0548628165
 30
0.0
 11
3056452.9187001
 21
20320.0548628165
 31
0.0
  0
LINE
  5
42D
330
1F
100
AcDbEntity
  8
Mirrors
100
AcDbLine
 10
29967.515442345
 20
4435.8503716
 30
0.0
 11
29717.4372677475
 21
4429.7575194
 31
0.0
  0
INSERT
  5
430
330
1F
100
AcDbEntity
  8
Mirrors
100
AcDbBlockReference
  2
#POLYLINE(146)
 10
29796.2890101
 20
20226.4355913
 30
0.0
  0
LINE
  5
433
330
1F
100
AcDbEntity
  8
Mirrors
100
AcDbLine
 10
29718.4325758476
 20
4524.1173664
 30
0.0
 11
29968.418669458
 21
4521.480512
 31
0.0
  0
LINE
  5
434
330
1F
100
AcDbEntity
  8
Mirrors
100
AcDbLine
 10
29717.4372677475
 20
4429.7575194
 30
0.0
 11
29718.5380500262
 21
4534.116810199999
 31
0.0
  0
LINE
  5
435
330
1F
100
AcDbEntity
  8
Mirrors
100
AcDbLine
 10
29968.524143636
 20
4531.479955700001
 30
0.0
 11
29967.515442345
 21
4435.8503716
 31
0.0
  0
LINE
  5
436
330
1F
100
AcDbEntity
  8
aux_lines
 62
     3
100
AcDbLine
 10
5237.361684200001
 20
20518.633356867
 30
0.0
 11
5037.808092700001
 21
20531.988659736
 31
0.0
  0
LINE
  5
437
330
1F
100
AcDbEntity
  8
aux_lines
 62
     3
100
AcDbLine
 10
8482.248244000002
 20
20161.8735489579
 30
0.0
 11
8681.958093200003
 21
20151.1043277482
 31
0.0
  0
ENDSEC
  0
SECTION
  2
OBJECTS
  0
DICTIONARY
  5
C
330
0
100
AcDbDictionary
281
     1
  3
ACAD_DETAILVIEWSTYLE
350
43C
  3
ACAD_GROUP
350
D
  3
ACAD_LAYOUT
350
1A
  3
ACAD_MATERIAL
350
43
  3
ACAD_MLEADERSTYLE
350
43B
  3
ACAD_MLINESTYLE
350
17
  3
ACAD_PLOTSETTINGS
350
19
  3
ACAD_PLOTSTYLENAME
350
E
  3
ACAD_SCALELIST
350
47
  3
ACAD_SECTIONVIEWSTYLE
350
43D
  3
ACAD_TABLESTYLE
350
43A
  3
ACAD_VISUALSTYLE
350
2A
  3
AcDbVariableDictionary
350
438
  0
SUN
  5
69
330
29
100
AcDbSun
 90
        1
290
     0
 63
     7
421
 16777215
 40
1.0
291
     1
 91
  2455826
 92
 54000000
292
     0
 70
     2
 71
   256
280
     1
  0
DICTIONARY
  5
43C
102
{ACAD_REACTORS
330
C
102
}
330
C
100
AcDbDictionary
281
     1
  0
DICTIONARY
  5
D
102
{ACAD_REACTORS
330
C
102
}
330
C
100
AcDbDictionary
281
     1
  0
DICTIONARY
  5
1A
102
{ACAD_REACTORS
330
C
102
}
330
C
100
AcDbDictionary
281
     1
  3
Layout1
350
1E
  3
Layout2
350
26
  3
Model
350
22
  0
DICTIONARY
  5
43
102
{ACAD_REACTORS
330
C
102
}
330
C
100
AcDbDictionary
281
     1
  3
ByBlock
350
45
  3
ByLayer
350
44
  3
Global
350
46
  0
DICTIONARY
  5
43B
102
{ACAD_REACTORS
330
C
102
}
330
C
100
AcDbDictionary
281
     1
  0
DICTIONARY
  5
17
102
{ACAD_REACTORS
330
C
102
}
330
C
100
AcDbDictionary
281
     1
  3
Standard
350
18
  0
DICTIONARY
  5
19
102
{ACAD_REACTORS
330
C
102
}
330
C
100
AcDbDictionary
281
     1
  0
ACDBDICTIONARYWDFLT
  5
E
102
{ACAD_REACTORS
330
C
102
}
330
C
100
AcDbDictionary
281
     1
  3
Normal
350
F
100
AcDbDictionaryWithDefault
340
F
  0
DICTIONARY
  5
47
102
{ACAD_REACTORS
330
C
102
}
330
C
100
AcDbDictionary
281
     1
  3
A0
350
48
  3
A1
350
49
  3
A2
350
4A
  3
A3
350
4B
  3
A4
350
4C
  3
A5
350
4D
  3
A6
350
4E
  3
A7
350
4F
  3
A8
350
50
  3
A9
350
51
  3
B0
350
52
  3
B1
350
53
  3
B2
350
54
  3
B3
350
55
  3
B4
350
56
  3
B5
350
57
  3
B6
350
58
  3
B7
350
59
  3
B8
350
5A
  3
B9
350
5B
  3
C0
350
5C
  3
C1
350
5D
  3
C2
350
5E
  3
C3
350
5F
  3
C4
350
60
  3
C5
350
61
  3
C6
350
62
  3
C7
350
63
  3
C8
350
64
  3
C9
350
65
  3
D0
350
66
  3
D1
350
67
  3
D2
350
68
  0
DICTIONARY
  5
43D
102
{ACAD_REACTORS
330
C
102
}
330
C
100
AcDbDictionary
281
     1
  0
DICTIONARY
  5
43A
102
{ACAD_REACTORS
330
C
102
}
330
C
100
AcDbDictionary
281
     1
  0
DICTIONARY
  5
2A
102
{ACAD_REACTORS
330
C
102
}
330
C
100
AcDbDictionary
281
     1
  3
2dWireframe
350
2F
  3
Basic
350
32
  3
Brighten
350
36
  3
ColorChange
350
3A
  3
Conceptual
350
34
  3
Dim
350
35
  3
EdgeColorOff
350
3D
  3
Facepattern
350
39
  3
Flat
350
2B
  3
FlatWithEdges
350
2C
  3
Gouraud
350
2D
  3
GouraudWithEdges
350
2E
  3
Hidden
350
31
  3
JitterOff
350
3B
  3
Linepattern
350
38
  3
OverhangOff
350
3C
  3
Realistic
350
33
  3
Shaded
350
42
  3
Shaded with edges
350
41
  3
Shades of Gray
350
3E
  3
Sketchy
350
3F
  3
Thicken
350
37
  3
Wireframe
350
30
  3
X-Ray
350
40
  0
DICTIONARY
  5
438
102
{ACAD_REACTORS
330
C
102
}
330
C
100
AcDbDictionary
281
     1
  3
CANNOSCALE
350
439
  0
LAYOUT
  5
1E
102
{ACAD_REACTORS
330
1A
102
}
330
1A
100
AcDbPlotSettings
  1

  2
none_device
  4

  6

 40
0.0
 41
0.0
 42
0.0
 43
0.0
 44
0.0
 45
0.0
 46
0.0
 47
0.0
 48
0.0
 49
0.0
140
0.0
141
0.0
142
1.0
143
1.0
 70
   688
 72
     1
 73
     0
 74
     5
  7

 75
    16
 76
     0
 77
     2
 78
   300
147
1.0
148
0.0
149
0.0
100
AcDbLayout
  1
Layout1
 70
     1
 71
     1
 10
0.0
 20
0.0
 11
420.0
 21
297.0
 12
0.0
 22
0.0
 32
0.0
 14
1.000000000000000E+20
 24
1.000000000000000E+20
 34
1.000000000000000E+20
 15
-1.000000000000000E+20
 25
-1.000000000000000E+20
 35
-1.000000000000000E+20
146
0.0
 13
0.0
 23
0.0
 33
0.0
 16
1.0
 26
0.0
 36
0.0
 17
0.0
 27
1.0
 37
0.0
 76
     0
330
1B
  0
LAYOUT
  5
26
102
{ACAD_REACTORS
330
1A
102
}
330
1A
100
AcDbPlotSettings
  1

  2
none_device
  4

  6

 40
0.0
 41
0.0
 42
0.0
 43
0.0
 44
0.0
 45
0.0
 46
0.0
 47
0.0
 48
0.0
 49
0.0
140
0.0
141
0.0
142
1.0
143
1.0
 70
   688
 72
     1
 73
     0
 74
     5
  7

 75
    16
 76
     0
 77
     2
 78
   300
147
1.0
148
0.0
149
0.0
100
AcDbLayout
  1
Layout2
 70
     1
 71
     2
 10
0.0
 20
0.0
 11
0.0
 21
0.0
 12
0.0
 22
0.0
 32
0.0
 14
0.0
 24
0.0
 34
0.0
 15
0.0
 25
0.0
 35
0.0
146
0.0
 13
0.0
 23
0.0
 33
0.0
 16
1.0
 26
0.0
 36
0.0
 17
0.0
 27
1.0
 37
0.0
 76
     0
330
23
  0
LAYOUT
  5
22
102
{ACAD_REACTORS
330
1A
102
}
330
1A
100
AcDbPlotSettings
  1

  2
none_device
  4
Letter_(8.50_x_11.00_Inches)
  6

 40
6.35
 41
6.35
 42
6.35000508
 43
6.35000508
 44
215.9
 45
279.4
 46
0.0
 47
0.0
 48
0.0
 49
0.0
140
0.0
141
0.0
142
1.0
143
1.0
 70
  1712
 72
     1
 73
     0
 74
     0
  7

 75
     0
 76
     0
 77
     2
 78
   300
147
1.0
148
0.0
149
0.0
100
AcDbLayout
  1
Model
 70
     1
 71
     0
 10
0.0
 20
0.0
 11
420.0
 21
297.0
 12
0.0
 22
0.0
 32
0.0
 14
0.0
 24
0.0
 34
0.0
 15
3056453.8786301
 25
3043598.8881013
 35
0.0
146
0.0
 13
0.0
 23
0.0
 33
0.0
 16
1.0
 26
0.0
 36
0.0
 17
0.0
 27
1.0
 37
0.0
 76
     0
330
1F
331
29
  0
MATERIAL
  5
45
102
{ACAD_REACTORS
330
43
102
}
330
43
100
AcDbMaterial
  1
ByBlock
 72
     1
 94
      127
  0
MATERIAL
  5
44
102
{ACAD_REACTORS
330
43
102
}
330
43
100
AcDbMaterial
  1
ByLayer
 72
     1
 94
      127
  0
MATERIAL
  5
46
102
{ACAD_REACTORS
330
43
102
}
330
43
100
AcDbMaterial
  1
Global
 72
     1
 94
      127
  0
MLINESTYLE
  5
18
102
{ACAD_REACTORS
330
17
102
}
330
17
100
AcDbMlineStyle
  2
Standard
 70
     0
  3

 62
   256
 51
90.0
 52
90.0
 71
     2
 49
0.5
 62
   256
  6
BYLAYER
 49
-0.5
 62
   256
  6
BYLAYER
  0
ACDBPLACEHOLDER
  5
F
102
{ACAD_REACTORS
330
E
102
}
330
E
  0
SCALE
  5
48
102
{ACAD_REACTORS
330
47
102
}
330
47
100
AcDbScale
 70
     0
300
1:1
140
1.0
141
1.0
290
     1
  0
SCALE
  5
49
102
{ACAD_REACTORS
330
47
102
}
330
47
100
AcDbScale
 70
     0
300
1:2
140
1.0
141
2.0
290
     0
  0
SCALE
  5
4A
102
{ACAD_REACTORS
330
47
102
}
330
47
100
AcDbScale
 70
     0
300
1:4
140
1.0
141
4.0
290
     0
  0
SCALE
  5
4B
102
{ACAD_REACTORS
330
47
102
}
330
47
100
AcDbScale
 70
     0
300
1:5
140
1.0
141
5.0
290
     0
  0
SCALE
  5
4C
102
{ACAD_REACTORS
330
47
102
}
330
47
100
AcDbScale
 70
     0
300
1:8
140
1.0
141
8.0
290
     0
  0
SCALE
  5
4D
102
{ACAD_REACTORS
330
47
102
}
330
47
100
AcDbScale
 70
     0
300
1:10
140
1.0
141
10.0
290
     0
  0
SCALE
  5
4E
102
{ACAD_REACTORS
330
47
102
}
330
47
100
AcDbScale
 70
     0
300
1:16
140
1.0
141
16.0
290
     0
  0
SCALE
  5
4F
102
{ACAD_REACTORS
330
47
102
}
330
47
100
AcDbScale
 70
     0
300
1:20
140
1.0
141
20.0
290
     0
  0
SCALE
  5
50
102
{ACAD_REACTORS
330
47
102
}
330
47
100
AcDbScale
 70
     0
300
1:30
140
1.0
141
30.0
290
     0
  0
SCALE
  5
51
102
{ACAD_REACTORS
330
47
102
}
330
47
100
AcDbScale
 70
     0
300
1:40
140
1.0
141
40.0
290
     0
  0
SCALE
  5
52
102
{ACAD_REACTORS
330
47
102
}
330
47
100
AcDbScale
 70
     0
300
1:50
140
1.0
141
50.0
290
     0
  0
SCALE
  5
53
102
{ACAD_REACTORS
330
47
102
}
330
47
100
AcDbScale
 70
     0
300
1:100
140
1.0
141
100.0
290
     0
  0
SCALE
  5
54
102
{ACAD_REACTORS
330
47
102
}
330
47
100
AcDbScale
 70
     0
300
2:1
140
2.0
141
1.0
290
     0
  0
SCALE
  5
55
102
{ACAD_REACTORS
330
47
102
}
330
47
100
AcDbScale
 70
     0
300
4:1
140
4.0
141
1.0
290
     0
  0
SCALE
  5
56
102
{ACAD_REACTORS
330
47
102
}
330
47
100
AcDbScale
 70
     0
300
8:1
140
8.0
141
1.0
290
     0
  0
SCALE
  5
57
102
{ACAD_REACTORS
330
47
102
}
330
47
100
AcDbScale
 70
     0
300
10:1
140
10.0
141
1.0
290
     0
  0
SCALE
  5
58
102
{ACAD_REACTORS
330
47
102
}
330
47
100
AcDbScale
 70
     0
300
100:1
140
100.0
141
1.0
290
     0
  0
SCALE
  5
59
102
{ACAD_REACTORS
330
47
102
}
330
47
100
AcDbScale
 70
     0
300
1/128" = 1'-0"
140
0.0078125
141
12.0
290
     0
  0
SCALE
  5
5A
102
{ACAD_REACTORS
330
47
102
}
330
47
100
AcDbScale
 70
     0
300
1/64" = 1'-0"
140
0.015625
141
12.0
290
     0
  0
SCALE
  5
5B
102
{ACAD_REACTORS
330
47
102
}
330
47
100
AcDbScale
 70
     0
300
1/32" = 1'-0"
140
0.03125
141
12.0
290
     0
  0
SCALE
  5
5C
102
{ACAD_REACTORS
330
47
102
}
330
47
100
AcDbScale
 70
     0
300
1/16" = 1'-0"
140
0.0625
141
12.0
290
     0
  0
SCALE
  5
5D
102
{ACAD_REACTORS
330
47
102
}
330
47
100
AcDbScale
 70
     0
300
3/32" = 1'-0"
140
0.09375
141
12.0
290
     0
  0
SCALE
  5
5E
102
{ACAD_REACTORS
330
47
102
}
330
47
100
AcDbScale
 70
     0
300
1/8" = 1'-0"
140
0.125
141
12.0
290
     0
  0
SCALE
  5
5F
102
{ACAD_REACTORS
330
47
102
}
330
47
100
AcDbScale
 70
     0
300
3/16" = 1'-0"
140
0.1875
141
12.0
290
     0
  0
SCALE
  5
60
102
{ACAD_REACTORS
330
47
102
}
330
47
100
AcDbScale
 70
     0
300
1/4" = 1'-0"
140
0.25
141
12.0
290
     0
  0
SCALE
  5
61
102
{ACAD_REACTORS
330
47
102
}
330
47
100
AcDbScale
 70
     0
300
3/8" = 1'-0"
140
0.375
141
12.0
290
     0
  0
SCALE
  5
62
102
{ACAD_REACTORS
330
47
102
}
330
47
100
AcDbScale
 70
     0
300
1/2" = 1'-0"
140
0.5
141
12.0
290
     0
  0
SCALE
  5
63
102
{ACAD_REACTORS
330
47
102
}
330
47
100
AcDbScale
 70
     0
300
3/4" = 1'-0"
140
0.75
141
12.0
290
     0
  0
SCALE
  5
64
102
{ACAD_REACTORS
330
47
102
}
330
47
100
AcDbScale
 70
     0
300
1" = 1'-0"
140
1.0
141
12.0
290
     0
  0
SCALE
  5
65
102
{ACAD_REACTORS
330
47
102
}
330
47
100
AcDbScale
 70
     0
300
1-1/2" = 1'-0"
140
1.5
141
12.0
290
     0
  0
SCALE
  5
66
102
{ACAD_REACTORS
330
47
102
}
330
47
100
AcDbScale
 70
     0
300
3" = 1'-0"
140
3.0
141
12.0
290
     0
  0
SCALE
  5
67
102
{ACAD_REACTORS
330
47
102
}
330
47
100
AcDbScale
 70
     0
300
6" = 1'-0"
140
6.0
141
12.0
290
     0
  0
SCALE
  5
68
102
{ACAD_REACTORS
330
47
102
}
330
47
100
AcDbScale
 70
     0
300
1'-0" = 1'-0"
140
12.0
141
12.0
290
     0
  0
VISUALSTYLE
  5
2F
102
{ACAD_REACTORS
330
2A
102
}
330
2A
100
AcDbVisualStyle
  2
2dWireframe
 70
     4
177
     3
291
     0
 70
    58
 90
        0
176
     1
 90
        2
176
     1
 90
        0
176
     1
 90
        0
176
     1
 40
0.6
176
     1
 40
30.0
176
     1
 62
     7
420
 16777215
176
     1
 90
        1
176
     1
 90
        4
176
     1
 62
     7
176
     1
 62
   257
176
     1
 90
        1
176
     1
 90
        1
176
     1
 40
1.0
176
     1
 90
        0
176
     1
 62
   257
176
     1
 40
1.0
176
     1
 90
        1
176
     1
 90
        6
176
     1
 90
        2
176
     1
 62
     7
176
     1
 90
        5
176
     1
 90
        0
176
     1
 90
        0
176
     1
290
     0
176
     1
 90
        1
176
     1
 40
0.0
176
     1
 90
        0
176
     1
290
     1
176
     1
290
     1
176
     1
290
     0
176
     1
290
     0
176
     1
290
     0
176
     1
290
     0
176
     1
290
     0
176
     1
290
     0
176
     1
290
     0
176
     1
 90
       50
176
     1
 40
0.0
176
     1
 40
1.0
176
     1
 90
        0
176
     1
 62
   178
420
        0
176
     1
 90
       50
176
     1
 90
        3
176
     1
 62
     5
420
      255
176
     1
290
     0
176
     1
 90
       50
176
     1
 90
       50
176
     1
 90
       50
176
     1
290
     0
176
     1
 90
       50
176
     1
 62
   256
176
     0
 40
1.0
176
     0
 90
        2
176
     1
  1
strokes_ogs.tif
176
     1
290
     0
176
     1
 40
1.0
176
     1
 40
1.0
176
     1
  0
VISUALSTYLE
  5
32
102
{ACAD_REACTORS
330
2A
102
}
330
2A
100
AcDbVisualStyle
  2
Basic
 70
     7
177
     3
291
     1
 70
    58
 90
        1
176
     1
 90
        0
176
     1
 90
        1
176
     1
 90
        0
176
     1
 40
0.6
176
     1
 40
30.0
176
     1
 62
     7
420
 16777215
176
     1
 90
        0
176
     1
 90
        4
176
     1
 62
     7
176
     1
 62
   257
176
     1
 90
        1
176
     1
 90
        1
176
     1
 40
1.0
176
     1
 90
        8
176
     1
 62
     7
176
     1
 40
1.0
176
     1
 90
        1
176
     1
 90
        6
176
     1
 90
        2
176
     1
 62
     7
176
     1
 90
        5
176
     1
 90
        0
176
     1
 90
        0
176
     1
290
     0
176
     1
 90
        1
176
     1
 40
0.0
176
     1
 90
        0
176
     1
290
     0
176
     1
290
     1
176
     1
290
     1
176
     1
290
     0
176
     1
290
     0
176
     1
290
     0
176
     1
290
     0
176
     1
290
     0
176
     1
290
     0
176
     1
 90
       50
176
     1
 40
0.0
176
     1
 40
1.0
176
     1
 90
        0
176
     1
 62
   178
420
        0
176
     1
 90
       50
176
     1
 90
        3
176
     1
 62
     5
420
      255
176
     1
290
     0
176
     1
 90
       50
176
     1
 90
       50
176
     1
 90
       50
176
     1
290
     0
176
     1
 90
       50
176
     1
 62
   256
176
     0
 40
1.0
176
     0
 90
        2
176
     1
  1
strokes_ogs.tif
176
     1
290
     0
176
     1
 40
1.0
176
     1
 40
1.0
176
     1
  0
VISUALSTYLE
  5
36
102
{ACAD_REACTORS
330
2A
102
}
330
2A
100
AcDbVisualStyle
  2
Brighten
 70
    12
177
     3
291
     1
 70
    58
 90
        2
176
     1
 90
        2
176
     1
 90
        0
176
     1
 90
        0
176
     1
 40
0.6
176
     1
 40
30.0
176
     1
 62
     7
420
 16777215
176
     1
 90
        1
176
     1
 90
        4
176
     1
 62
     7
176
     1
 62
   257
176
     1
 90
        1
176
     1
 90
        1
176
     1
 40
1.0
176
     1
 90
        8
176
     1
 62
     7
176
     1
 40
1.0
176
     1
 90
        1
176
     1
 90
        6
176
     1
 90
        2
176
     1
 62
     7
176
     1
 90
        5
176
     1
 90
        0
176
     1
 90
        0
176
     1
290
     0
176
     1
 90
        1
176
     1
 40
50.0
176
     1
 90
        0
176
     1
290
     0
176
     1
290
     1
176
     1
290
     1
176
     1
290
     0
176
     1
290
     0
176
     1
290
     0
176
     1
290
     0
176
     1
290
     0
176
     1
290
     0
176
     1
 90
       50
176
     1
 40
0.0
176
     1
 40
1.0
176
     1
 90
        0
176
     1
 62
   178
420
        0
176
     1
 90
       50
176
     1
 90
        3
176
     1
 62
     5
420
      255
176
     1
290
     0
176
     1
 90
       50
176
     1
 90
       50
176
     1
 90
       50
176
     1
290
     0
176
     1
 90
       50
176
     1
 62
   256
176
     0
 40
1.0
176
     0
 90
        2
176
     1
  1
strokes_ogs.tif
176
     1
290
     0
176
     1
 40
1.0
176
     1
 40
1.0
176
     1
  0
VISUALSTYLE
  5
3A
102
{ACAD_REACTORS
330
2A
102
}
330
2A
100
AcDbVisualStyle
  2
ColorChange
 70
    16
177
     3
291
     1
 70
    58
 90
        2
176
     1
 90
        2
176
     1
 90
        3
176
     1
 90
        0
176
     1
 40
0.6
176
     1
 40
30.0
176
     1
 62
     8
420
  8421504
176
     1
 90
        1
176
     1
 90
        4
176
     1
 62
     7
176
     1
 62
   257
176
     1
 90
        1
176
     1
 90
        1
176
     1
 40
1.0
176
     1
 90
        8
176
     1
 62
     8
420
  8421504
176
     1
 40
1.0
176
     1
 90
        1
176
     1
 90
        6
176
     1
 90
        2
176
     1
 62
     7
176
     1
 90
        5
176
     1
 90
        0
176
     1
 90
        0
176
     1
290
     0
176
     1
 90
        1
176
     1
 40
0.0
176
     1
 90
        0
176
     1
290
     0
176
     1
290
     1
176
     1
290
     1
176
     1
290
     0
176
     1
290
     0
176
     1
290
     0
176
     1
290
     0
176
     1
290
     0
176
     1
290
     0
176
     1
 90
       50
176
     1
 40
0.0
176
     1
 40
1.0
176
     1
 90
        0
176
     1
 62
   178
420
        0
176
     1
 90
       50
176
     1
 90
        3
176
     1
 62
     5
420
      255
176
     1
290
     0
176
     1
 90
       50
176
     1
 90
       50
176
     1
 90
       50
176
     1
290
     0
176
     1
 90
       50
176
     1
 62
   256
176
     0
 40
1.0
176
     0
 90
        2
176
     1
  1
strokes_ogs.tif
176
     1
290
     0
176
     1
 40
1.0
176
     1
 40
1.0
176
     1
  0
VISUALSTYLE
  5
34
102
{ACAD_REACTORS
330
2A
102
}
330
2A
100
AcDbVisualStyle
  2
Conceptual
 70
     9
177
     3
291
     0
 70
    58
 90
        3
176
     1
 90
        2
176
     1
 90
        0
176
     1
 90
        0
176
     1
 40
0.6
176
     1
 40
30.0
176
     1
 62
     7
420
 16777215
176
     1
 90
        2
176
     1
 90
        2
176
     1
 62
     7
176
     1
 62
   257
176
     1
 90
        1
176
     1
 90
        1
176
     1
 40
179.0
176
     1
 90
        8
176
     1
 62
     7
176
     1
 40
1.0
176
     1
 90
        1
176
     1
 90
        6
176
     1
 90
        2
176
     1
 62
     7
176
     1
 90
        3
176
     1
 90
        0
176
     1
 90
        0
176
     1
290
     0
176
     1
 90
        1
176
     1
 40
0.0
176
     1
 90
        0
176
     1
290
     0
176
     1
290
     1
176
     1
290
     1
176
     1
290
     0
176
     1
290
     0
176
     1
290
     0
176
     1
290
     0
176
     1
290
     0
176
     1
290
     0
176
     1
 90
       50
176
     1
 40
0.0
176
     1
 40
1.0
176
     1
 90
        0
176
     1
 62
   178
420
        0
176
     1
 90
       50
176
     1
 90
        3
176
     1
 62
     5
420
      255
176
     1
290
     0
176
     1
 90
       50
176
     1
 90
       50
176
     1
 90
       50
176
     1
290
     0
176
     1
 90
       50
176
     1
 62
   256
176
     0
 40
1.0
176
     0
 90
        2
176
     1
  1
strokes_ogs.tif
176
     1
290
     0
176
     1
 40
1.0
176
     1
 40
1.0
176
     1
  0
VISUALSTYLE
  5
35
102
{ACAD_REACTORS
330
2A
102
}
330
2A
100
AcDbVisualStyle
  2
Dim
 70
    11
177
     3
291
     1
 70
    58
 90
        2
176
     1
 90
        2
176
     1
 90
        0
176
     1
 90
        0
176
     1
 40
0.6
176
     1
 40
30.0
176
     1
 62
     7
420
 16777215
176
     1
 90
        1
176
     1
 90
        4
176
     1
 62
     7
176
     1
 62
   257
176
     1
 90
        1
176
     1
 90
        1
176
     1
 40
1.0
176
     1
 90
        8
176
     1
 62
     7
176
     1
 40
1.0
176
     1
 90
        1
176
     1
 90
        6
176
     1
 90
        2
176
     1
 62
     7
176
     1
 90
        5
176
     1
 90
        0
176
     1
 90
        0
176
     1
290
     0
176
     1
 90
        1
176
     1
 40
-50.0
176
     1
 90
        0
176
     1
290
     0
176
     1
290
     1
176
     1
290
     1
176
     1
290
     0
176
     1
290
     0
176
     1
290
     0
176
     1
290
     0
176
     1
290
     0
176
     1
290
     0
176
     1
 90
       50
176
     1
 40
0.0
176
     1
 40
1.0
176
     1
 90
        0
176
     1
 62
   178
420
        0
176
     1
 90
       50
176
     1
 90
        3
176
     1
 62
     5
420
      255
176
     1
290
     0
176
     1
 90
       50
176
     1
 90
       50
176
     1
 90
       50
176
     1
290
     0
176
     1
 90
       50
176
     1
 62
   256
176
     0
 40
1.0
176
     0
 90
        2
176
     1
  1
strokes_ogs.tif
176
     1
290
     0
176
     1
 40
1.0
176
     1
 40
1.0
176
     1
  0
VISUALSTYLE
  5
3D
102
{ACAD_REACTORS
330
2A
102
}
330
2A
100
AcDbVisualStyle
  2
EdgeColorOff
 70
    22
177
     3
291
     1
 70
    58
 90
        2
176
     0
 90
        2
176
     0
 90
        0
176
     0
 90
        0
176
     0
 40
0.6
176
     0
 40
30.0
176
     0
 62
     7
420
 16777215
176
     0
 90
        1
176
     0
 90
        4
176
     0
 62
     7
176
     0
 62
   257
176
     0
 90
        1
176
     0
 90
        1
176
     0
 40
1.0
176
     0
 90
        8
176
     2
 62
     7
176
     0
 40
1.0
176
     0
 90
        1
176
     0
 90
        6
176
     0
 90
        2
176
     0
 62
     7
176
     0
 90
        5
176
     0
 90
        0
176
     0
 90
        0
176
     0
290
     0
176
     0
 90
        1
176
     0
 40
0.0
176
     0
 90
        0
176
     0
290
     0
176
     0
290
     1
176
     0
290
     1
176
     0
290
     0
176
     0
290
     0
176
     0
290
     0
176
     0
290
     0
176
     0
290
     0
176
     0
290
     0
176
     0
 90
       50
176
     0
 40
0.0
176
     0
 40
1.0
176
     0
 90
        0
176
     0
 62
   178
420
        0
176
     0
 90
       50
176
     0
 90
        3
176
     0
 62
     5
420
      255
176
     0
290
     0
176
     0
 90
       50
176
     0
 90
       50
176
     0
 90
       50
176
     0
290
     0
176
     0
 90
       50
176
     0
 62
   256
176
     0
 40
1.0
176
     0
 90
        2
176
     0
  1
strokes_ogs.tif
176
     0
290
     0
176
     0
 40
1.0
176
     0
 40
1.0
176
     0
  0
VISUALSTYLE
  5
39
102
{ACAD_REACTORS
330
2A
102
}
330
2A
100
AcDbVisualStyle
  2
Facepattern
 70
    15
177
     3
291
     1
 70
    58
 90
        2
176
     1
 90
        2
176
     1
 90
        0
176
     1
 90
        0
176
     1
 40
0.6
176
     1
 40
30.0
176
     1
 62
     7
420
 16777215
176
     1
 90
        1
176
     1
 90
        4
176
     1
 62
     7
176
     1
 62
   257
176
     1
 90
        1
176
     1
 90
        1
176
     1
 40
1.0
176
     1
 90
        8
176
     1
 62
     7
176
     1
 40
1.0
176
     1
 90
        1
176
     1
 90
        6
176
     1
 90
        2
176
     1
 62
     7
176
     1
 90
        5
176
     1
 90
        0
176
     1
 90
        0
176
     1
290
     0
176
     1
 90
        1
176
     1
 40
0.0
176
     1
 90
        0
176
     1
290
     0
176
     1
290
     1
176
     1
290
     1
176
     1
290
     0
176
     1
290
     0
176
     1
290
     0
176
     1
290
     0
176
     1
290
     0
176
     1
290
     0
176
     1
 90
       50
176
     1
 40
0.0
176
     1
 40
1.0
176
     1
 90
        0
176
     1
 62
   178
420
        0
176
     1
 90
       50
176
     1
 90
        3
176
     1
 62
     5
420
      255
176
     1
290
     0
176
     1
 90
       50
176
     1
 90
       50
176
     1
 90
       50
176
     1
290
     0
176
     1
 90
       50
176
     1
 62
   256
176
     0
 40
1.0
176
     0
 90
        2
176
     1
  1
strokes_ogs.tif
176
     1
290
     0
176
     1
 40
1.0
176
     1
 40
1.0
176
     1
  0
VISUALSTYLE
  5
2B
102
{ACAD_REACTORS
330
2A
102
}
330
2A
100
AcDbVisualStyle
  2
Flat
 70
     0
177
     3
291
     1
 70
    58
 90
        2
176
     1
 90
        1
176
     1
 90
        1
176
     1
 90
        2
176
     1
 40
0.6
176
     1
 40
30.0
176
     1
 62
     7
420
 16777215
176
     1
 90
        0
176
     1
 90
        0
176
     1
 62
     7
176
     1
 62
   257
176
     1
 90
        1
176
     1
 90
        1
176
     1
 40
1.0
176
     1
 90
        8
176
     1
 62
     7
176
     1
 40
1.0
176
     1
 90
        1
176
     1
 90
        6
176
     1
 90
        2
176
     1
 62
     7
176
     1
 90
        5
176
     1
 90
        0
176
     1
 90
        0
176
     1
290
     0
176
     1
 90
       13
176
     1
 40
0.0
176
     1
 90
        0
176
     1
290
     0
176
     1
290
     1
176
     1
290
     1
176
     1
290
     0
176
     1
290
     0
176
     1
290
     0
176
     1
290
     0
176
     1
290
     0
176
     1
290
     0
176
     1
 90
       50
176
     1
 40
0.0
176
     1
 40
1.0
176
     1
 90
        0
176
     1
 62
   178
420
        0
176
     1
 90
       50
176
     1
 90
        3
176
     1
 62
     5
420
      255
176
     1
290
     0
176
     1
 90
       50
176
     1
 90
       50
176
     1
 90
       50
176
     1
290
     0
176
     1
 90
       50
176
     1
 62
   256
176
     0
 40
1.0
176
     0
 90
        2
176
     1
  1
strokes_ogs.tif
176
     1
290
     0
176
     1
 40
1.0
176
     1
 40
1.0
176
     1
  0
VISUALSTYLE
  5
2C
102
{ACAD_REACTORS
330
2A
102
}
330
2A
100
AcDbVisualStyle
  2
FlatWithEdges
 70
     1
177
     3
291
     1
 70
    58
 90
        2
176
     1
 90
        1
176
     1
 90
        1
176
     1
 90
        2
176
     1
 40
0.6
176
     1
 40
30.0
176
     1
 62
     7
420
 16777215
176
     1
 90
        1
176
     1
 90
        0
176
     1
 62
     7
176
     1
 62
   257
176
     1
 90
        1
176
     1
 90
        1
176
     1
 40
1.0
176
     1
 90
        0
176
     1
 62
   257
176
     1
 40
1.0
176
     1
 90
        1
176
     1
 90
        6
176
     1
 90
        2
176
     1
 62
     7
176
     1
 90
        5
176
     1
 90
        0
176
     1
 90
        0
176
     1
290
     0
176
     1
 90
       13
176
     1
 40
0.0
176
     1
 90
        0
176
     1
290
     0
176
     1
290
     1
176
     1
290
     1
176
     1
290
     0
176
     1
290
     0
176
     1
290
     0
176
     1
290
     0
176
     1
290
     0
176
     1
290
     0
176
     1
 90
       50
176
     1
 40
0.0
176
     1
 40
1.0
176
     1
 90
        0
176
     1
 62
   178
420
        0
176
     1
 90
       50
176
     1
 90
        3
176
     1
 62
     5
420
      255
176
     1
290
     0
176
     1
 90
       50
176
     1
 90
       50
176
     1
 90
       50
176
     1
290
     0
176
     1
 90
       50
176
     1
 62
   256
176
     0
 40
1.0
176
     0
 90
        2
176
     1
  1
strokes_ogs.tif
176
     1
290
     0
176
     1
 40
1.0
176
     1
 40
1.0
176
     1
  0
VISUALSTYLE
  5
2D
102
{ACAD_REACTORS
330
2A
102
}
330
2A
100
AcDbVisualStyle
  2
Gouraud
 70
     2
177
     3
291
     1
 70
    58
 90
        2
176
     1
 90
        2
176
     1
 90
        1
176
     1
 90
        2
176
     1
 40
0.6
176
     1
 40
30.0
176
     1
 62
     7
420
 16777215
176
     1
 90
        0
176
     1
 90
        0
176
     1
 62
     7
176
     1
 62
   257
176
     1
 90
        1
176
     1
 90
        1
176
     1
 40
1.0
176
     1
 90
        0
176
     1
 62
     7
176
     1
 40
1.0
176
     1
 90
        1
176
     1
 90
        6
176
     1
 90
        2
176
     1
 62
     7
176
     1
 90
        5
176
     1
 90
        0
176
     1
 90
        0
176
     1
290
     0
176
     1
 90
       13
176
     1
 40
0.0
176
     1
 90
        0
176
     1
290
     0
176
     1
290
     1
176
     1
290
     1
176
     1
290
     0
176
     1
290
     0
176
     1
290
     0
176
     1
290
     0
176
     1
290
     0
176
     1
290
     0
176
     1
 90
       50
176
     1
 40
0.0
176
     1
 40
1.0
176
     1
 90
        0
176
     1
 62
   178
420
        0
176
     1
 90
       50
176
     1
 90
        3
176
     1
 62
     5
420
      255
176
     1
290
     0
176
     1
 90
       50
176
     1
 90
       50
176
     1
 90
       50
176
     1
290
     0
176
     1
 90
       50
176
     1
 62
   256
176
     0
 40
1.0
176
     0
 90
        2
176
     1
  1
strokes_ogs.tif
176
     1
290
     0
176
     1
 40
1.0
176
     1
 40
1.0
176
     1
  0
VISUALSTYLE
  5
2E
102
{ACAD_REACTORS
330
2A
102
}
330
2A
100
AcDbVisualStyle
  2
GouraudWithEdges
 70
     3
177
     3
291
     1
 70
    58
 90
        2
176
     1
 90
        2
176
     1
 90
        1
176
     1
 90
        2
176
     1
 40
0.6
176
     1
 40
30.0
176
     1
 62
     7
420
 16777215
176
     1
 90
        1
176
     1
 90
        0
176
     1
 62
     7
176
     1
 62
   257
176
     1
 90
        1
176
     1
 90
        1
176
     1
 40
1.0
176
     1
 90
        0
176
     1
 62
   257
176
     1
 40
1.0
176
     1
 90
        1
176
     1
 90
        6
176
     1
 90
        2
176
     1
 62
     7
176
     1
 90
        5
176
     1
 90
        0
176
     1
 90
        0
176
     1
290
     0
176
     1
 90
       13
176
     1
 40
0.0
176
     1
 90
        0
176
     1
290
     0
176
     1
290
     1
176
     1
290
     1
176
     1
290
     0
176
     1
290
     0
176
     1
290
     0
176
     1
290
     0
176
     1
290
     0
176
     1
290
     0
176
     1
 90
       50
176
     1
 40
0.0
176
     1
 40
1.0
176
     1
 90
        0
176
     1
 62
   178
420
        0
176
     1
 90
       50
176
     1
 90
        3
176
     1
 62
     5
420
      255
176
     1
290
     0
176
     1
 90
       50
176
     1
 90
       50
176
     1
 90
       50
176
     1
290
     0
176
     1
 90
       50
176
     1
 62
   256
176
     0
 40
1.0
176
     0
 90
        2
176
     1
  1
strokes_ogs.tif
176
     1
290
     0
176
     1
 40
1.0
176
     1
 40
1.0
176
     1
  0
VISUALSTYLE
  5
31
102
{ACAD_REACTORS
330
2A
102
}
330
2A
100
AcDbVisualStyle
  2
Hidden
 70
     6
177
     3
291
     0
 70
    58
 90
        1
176
     1
 90
        2
176
     1
 90
        2
176
     1
 90
        0
176
     1
 40
0.6
176
     1
 40
30.0
176
     1
 62
     7
420
 16777215
176
     1
 90
        2
176
     1
 90
        2
176
     1
 62
     7
176
     1
 62
   257
176
     1
 90
        2
176
     1
 90
        1
176
     1
 40
40.0
176
     1
 90
        0
176
     1
 62
   257
176
     1
 40
1.0
176
     1
 90
        1
176
     1
 90
        6
176
     1
 90
        2
176
     1
 62
     7
176
     1
 90
        3
176
     1
 90
        0
176
     1
 90
        0
176
     1
290
     0
176
     1
 90
        1
176
     1
 40
0.0
176
     1
 90
        0
176
     1
290
     0
176
     1
290
     1
176
     1
290
     1
176
     1
290
     0
176
     1
290
     0
176
     1
290
     0
176
     1
290
     0
176
     1
290
     0
176
     1
290
     0
176
     1
 90
       50
176
     1
 40
0.0
176
     1
 40
1.0
176
     1
 90
        0
176
     1
 62
   178
420
        0
176
     1
 90
       50
176
     1
 90
        3
176
     1
 62
     5
420
      255
176
     1
290
     0
176
     1
 90
       50
176
     1
 90
       50
176
     1
 90
       50
176
     1
290
     0
176
     1
 90
       50
176
     1
 62
   256
176
     0
 40
1.0
176
     0
 90
        2
176
     1
  1
strokes_ogs.tif
176
     1
290
     0
176
     1
 40
1.0
176
     1
 40
1.0
176
     1
  0
VISUALSTYLE
  5
3B
102
{ACAD_REACTORS
330
2A
102
}
330
2A
100
AcDbVisualStyle
  2
JitterOff
 70
    20
177
     3
291
     1
 70
    58
 90
        2
176
     0
 90
        2
176
     0
 90
        0
176
     0
 90
        0
176
     0
 40
0.6
176
     0
 40
30.0
176
     0
 62
     7
420
 16777215
176
     0
 90
        1
176
     0
 90
        4
176
     0
 62
     7
176
     0
 62
   257
176
     0
 90
        1
176
     0
 90
        1
176
     0
 40
1.0
176
     0
 90
       10
176
     2
 62
     7
176
     0
 40
1.0
176
     0
 90
        1
176
     0
 90
        6
176
     0
 90
        2
176
     0
 62
     7
176
     0
 90
        5
176
     0
 90
        0
176
     0
 90
        0
176
     0
290
     0
176
     0
 90
        1
176
     0
 40
0.0
176
     0
 90
        0
176
     0
290
     0
176
     0
290
     1
176
     0
290
     1
176
     0
290
     0
176
     0
290
     0
176
     0
290
     0
176
     0
290
     0
176
     0
290
     0
176
     0
290
     0
176
     0
 90
       50
176
     0
 40
0.0
176
     0
 40
1.0
176
     0
 90
        0
176
     0
 62
   178
420
        0
176
     0
 90
       50
176
     0
 90
        3
176
     0
 62
     5
420
      255
176
     0
290
     0
176
     0
 90
       50
176
     0
 90
       50
176
     0
 90
       50
176
     0
290
     0
176
     0
 90
       50
176
     0
 62
   256
176
     0
 40
1.0
176
     0
 90
        2
176
     0
  1
strokes_ogs.tif
176
     0
290
     0
176
     0
 40
1.0
176
     0
 40
1.0
176
     0
  0
VISUALSTYLE
  5
38
102
{ACAD_REACTORS
330
2A
102
}
330
2A
100
AcDbVisualStyle
  2
Linepattern
 70
    14
177
     3
291
     1
 70
    58
 90
        2
176
     1
 90
        2
176
     1
 90
        0
176
     1
 90
        0
176
     1
 40
0.6
176
     1
 40
30.0
176
     1
 62
     7
420
 16777215
176
     1
 90
        1
176
     1
 90
        4
176
     1
 62
     7
176
     1
 62
   257
176
     1
 90
        7
176
     1
 90
        7
176
     1
 40
1.0
176
     1
 90
        8
176
     1
 62
     7
176
     1
 40
1.0
176
     1
 90
        1
176
     1
 90
        6
176
     1
 90
        2
176
     1
 62
     7
176
     1
 90
        5
176
     1
 90
        0
176
     1
 90
        0
176
     1
290
     0
176
     1
 90
        1
176
     1
 40
0.0
176
     1
 90
        0
176
     1
290
     0
176
     1
290
     1
176
     1
290
     1
176
     1
290
     0
176
     1
290
     0
176
     1
290
     0
176
     1
290
     0
176
     1
290
     0
176
     1
290
     0
176
     1
 90
       50
176
     1
 40
0.0
176
     1
 40
1.0
176
     1
 90
        0
176
     1
 62
   178
420
        0
176
     1
 90
       50
176
     1
 90
        3
176
     1
 62
     5
420
      255
176
     1
290
     0
176
     1
 90
       50
176
     1
 90
       50
176
     1
 90
       50
176
     1
290
     0
176
     1
 90
       50
176
     1
 62
   256
176
     0
 40
1.0
176
     0
 90
        2
176
     1
  1
strokes_ogs.tif
176
     1
290
     0
176
     1
 40
1.0
176
     1
 40
1.0
176
     1
  0
VISUALSTYLE
  5
3C
102
{ACAD_REACTORS
330
2A
102
}
330
2A
100
AcDbVisualStyle
  2
OverhangOff
 70
    21
177
     3
291
     1
 70
    58
 90
        2
176
     0
 90
        2
176
     0
 90
        0
176
     0
 90
        0
176
     0
 40
0.6
176
     0
 40
30.0
176
     0
 62
     7
420
 16777215
176
     0
 90
        1
176
     0
 90
        4
176
     0
 62
     7
176
     0
 62
   257
176
     0
 90
        1
176
     0
 90
        1
176
     0
 40
1.0
176
     0
 90
        9
176
     2
 62
     7
176
     0
 40
1.0
176
     0
 90
        1
176
     0
 90
        6
176
     0
 90
        2
176
     0
 62
     7
176
     0
 90
        5
176
     0
 90
        0
176
     0
 90
        0
176
     0
290
     0
176
     0
 90
        1
176
     0
 40
0.0
176
     0
 90
        0
176
     0
290
     0
176
     0
290
     1
176
     0
290
     1
176
     0
290
     0
176
     0
290
     0
176
     0
290
     0
176
     0
290
     0
176
     0
290
     0
176
     0
290
     0
176
     0
 90
       50
176
     0
 40
0.0
176
     0
 40
1.0
176
     0
 90
        0
176
     0
 62
   178
420
        0
176
     0
 90
       50
176
     0
 90
        3
176
     0
 62
     5
420
      255
176
     0
290
     0
176
     0
 90
       50
176
     0
 90
       50
176
     0
 90
       50
176
     0
290
     0
176
     0
 90
       50
176
     0
 62
   256
176
     0
 40
1.0
176
     0
 90
        2
176
     0
  1
strokes_ogs.tif
176
     0
290
     0
176
     0
 40
1.0
176
     0
 40
1.0
176
     0
  0
VISUALSTYLE
  5
33
102
{ACAD_REACTORS
330
2A
102
}
330
2A
100
AcDbVisualStyle
  2
Realistic
 70
     8
177
     3
291
     0
 70
    58
 90
        2
176
     1
 90
        3
176
     1
 90
        0
176
     1
 90
        2
176
     1
 40
0.6
176
     1
 40
30.0
176
     1
 62
     7
420
 16777215
176
     1
 90
        0
176
     1
 90
        0
176
     1
 62
     7
176
     1
 62
   257
176
     1
 90
        1
176
     1
 90
        1
176
     1
 40
1.0
176
     1
 90
        8
176
     1
 62
   257
176
     1
 40
1.0
176
     1
 90
        1
176
     1
 90
        6
176
     1
 90
        2
176
     1
 62
     7
176
     1
 90
        3
176
     1
 90
        0
176
     1
 90
        0
176
     1
290
     0
176
     1
 90
       13
176
     1
 40
0.0
176
     1
 90
        0
176
     1
290
     0
176
     1
290
     1
176
     1
290
     1
176
     1
290
     0
176
     1
290
     0
176
     1
290
     0
176
     1
290
     0
176
     1
290
     0
176
     1
290
     0
176
     1
 90
       50
176
     1
 40
0.0
176
     1
 40
1.0
176
     1
 90
        0
176
     1
 62
   178
420
        0
176
     1
 90
       50
176
     1
 90
        3
176
     1
 62
     5
420
      255
176
     1
290
     0
176
     1
 90
       50
176
     1
 90
       50
176
     1
 90
       50
176
     1
290
     0
176
     1
 90
       50
176
     1
 62
   256
176
     0
 40
1.0
176
     0
 90
        2
176
     1
  1
strokes_ogs.tif
176
     1
290
     0
176
     1
 40
1.0
176
     1
 40
1.0
176
     1
  0
VISUALSTYLE
  5
42
102
{ACAD_REACTORS
330
2A
102
}
330
2A
100
AcDbVisualStyle
  2
Shaded
 70
    27
177
     3
291
     0
 70
    58
 90
        2
176
     1
 90
        2
176
     1
 90
        1
176
     1
 90
        2
176
     1
 40
0.6
176
     1
 40
30.0
176
     1
 62
     7
420
 16777215
176
     1
 90
        0
176
     1
 90
        4
176
     1
 62
     7
176
     1
 62
   257
176
     1
 90
        1
176
     1
 90
        1
176
     1
 40
1.0
176
     1
 90
        8
176
     1
 62
   257
176
     1
 40
1.0
176
     1
 90
        1
176
     1
 90
        6
176
     1
 90
        2
176
     1
 62
     8
420
  7895160
176
     1
 90
        3
176
     1
 90
        0
176
     1
 90
        0
176
     1
290
     0
176
     1
 90
        5
176
     1
 40
0.0
176
     1
 90
        0
176
     1
290
     0
176
     1
290
     1
176
     1
290
     1
176
     1
290
     0
176
     1
290
     0
176
     1
290
     0
176
     1
290
     0
176
     1
290
     0
176
     1
290
     0
176
     1
 90
       50
176
     1
 40
0.0
176
     1
 40
1.0
176
     1
 90
        0
176
     1
 62
   178
420
        0
176
     1
 90
       50
176
     1
 90
        3
176
     1
 62
     5
420
      255
176
     1
290
     0
176
     1
 90
       50
176
     1
 90
       50
176
     1
 90
       50
176
     1
290
     0
176
     1
 90
       50
176
     1
 62
   256
176
     0
 40
1.0
176
     0
 90
        2
176
     1
  1
strokes_ogs.tif
176
     1
290
     0
176
     1
 40
1.0
176
     1
 40
1.0
176
     1
  0
VISUALSTYLE
  5
41
102
{ACAD_REACTORS
330
2A
102
}
330
2A
100
AcDbVisualStyle
  2
Shaded with edges
 70
    26
177
     3
291
     0
 70
    58
 90
        2
176
     1
 90
        2
176
     1
 90
        1
176
     1
 90
        2
176
     1
 40
0.6
176
     1
 40
30.0
176
     1
 62
     7
420
 16777215
176
     1
 90
        1
176
     1
 90
       10
176
     1
 62
     7
176
     1
 62
   257
176
     1
 90
        2
176
     1
 90
        1
176
     1
 40
1.0
176
     1
 90
        8
176
     1
 62
   257
176
     1
 40
1.0
176
     1
 90
        1
176
     1
 90
        6
176
     1
 90
        2
176
     1
 62
     7
176
     1
 90
        3
176
     1
 90
        0
176
     1
 90
        0
176
     1
290
     0
176
     1
 90
        5
176
     1
 40
0.0
176
     1
 90
        0
176
     1
290
     0
176
     1
290
     1
176
     1
290
     1
176
     1
290
     0
176
     1
290
     0
176
     1
290
     0
176
     1
290
     0
176
     1
290
     0
176
     1
290
     0
176
     1
 90
       50
176
     1
 40
0.0
176
     1
 40
1.0
176
     1
 90
        0
176
     1
 62
   178
420
        0
176
     1
 90
       50
176
     1
 90
        3
176
     1
 62
     5
420
      255
176
     1
290
     0
176
     1
 90
       50
176
     1
 90
       50
176
     1
 90
       50
176
     1
290
     0
176
     1
 90
       50
176
     1
 62
   256
176
     0
 40
1.0
176
     0
 90
        2
176
     1
  1
strokes_ogs.tif
176
     1
290
     0
176
     1
 40
1.0
176
     1
 40
1.0
176
     1
  0
VISUALSTYLE
  5
3E
102
{ACAD_REACTORS
330
2A
102
}
330
2A
100
AcDbVisualStyle
  2
Shades of Gray
 70
    23
177
     3
291
     0
 70
    58
 90
        2
176
     1
 90
        2
176
     1
 90
        3
176
     1
 90
        0
176
     1
 40
0.6
176
     1
 40
30.0
176
     1
 62
     7
420
 16777215
176
     1
 90
        2
176
     1
 90
        2
176
     1
 62
     7
176
     1
 62
     7
176
     1
 90
        1
176
     1
 90
        1
176
     1
 40
40.0
176
     1
 90
        8
176
     1
 62
     7
176
     1
 40
1.0
176
     1
 90
        1
176
     1
 90
        6
176
     1
 90
        2
176
     1
 62
     7
176
     1
 90
        3
176
     1
 90
        0
176
     1
 90
        0
176
     1
290
     0
176
     1
 90
        1
176
     1
 40
0.0
176
     1
 90
        0
176
     1
290
     0
176
     1
290
     1
176
     1
290
     1
176
     1
290
     0
176
     1
290
     0
176
     1
290
     0
176
     1
290
     0
176
     1
290
     0
176
     1
290
     0
176
     1
 90
       50
176
     1
 40
0.0
176
     1
 40
1.0
176
     1
 90
        0
176
     1
 62
   178
420
        0
176
     1
 90
       50
176
     1
 90
        3
176
     1
 62
     5
420
      255
176
     1
290
     0
176
     1
 90
       50
176
     1
 90
       50
176
     1
 90
       50
176
     1
290
     0
176
     1
 90
       50
176
     1
 62
   256
176
     0
 40
1.0
176
     0
 90
        2
176
     1
  1
strokes_ogs.tif
176
     1
290
     0
176
     1
 40
1.0
176
     1
 40
1.0
176
     1
  0
VISUALSTYLE
  5
3F
102
{ACAD_REACTORS
330
2A
102
}
330
2A
100
AcDbVisualStyle
  2
Sketchy
 70
    24
177
     3
291
     0
 70
    58
 90
        1
176
     1
 90
        2
176
     1
 90
        2
176
     1
 90
        0
176
     1
 40
0.6
176
     1
 40
30.0
176
     1
 62
     7
420
 16777215
176
     1
 90
        2
176
     1
 90
        2
176
     1
 62
     7
176
     1
 62
     7
176
     1
 90
        1
176
     1
 90
        1
176
     1
 40
40.0
176
     1
 90
       11
176
     1
 62
     7
176
     1
 40
1.0
176
     1
 90
        1
176
     1
 90
        6
176
     1
 90
        2
176
     1
 62
     7
176
     1
 90
        6
176
     1
 90
        0
176
     1
 90
        0
176
     1
290
     0
176
     1
 90
        1
176
     1
 40
0.0
176
     1
 90
        0
176
     1
290
     0
176
     1
290
     1
176
     1
290
     1
176
     1
290
     0
176
     1
290
     0
176
     1
290
     0
176
     1
290
     0
176
     1
290
     0
176
     1
290
     0
176
     1
 90
       50
176
     1
 40
0.0
176
     1
 40
1.0
176
     1
 90
        0
176
     1
 62
   178
420
        0
176
     1
 90
       50
176
     1
 90
        3
176
     1
 62
     5
420
      255
176
     1
290
     0
176
     1
 90
       50
176
     1
 90
       50
176
     1
 90
       50
176
     1
290
     0
176
     1
 90
       50
176
     1
 62
   256
176
     0
 40
1.0
176
     0
 90
        2
176
     1
  1
strokes_ogs.tif
176
     1
290
     0
176
     1
 40
1.0
176
     1
 40
1.0
176
     1
  0
VISUALSTYLE
  5
37
102
{ACAD_REACTORS
330
2A
102
}
330
2A
100
AcDbVisualStyle
  2
Thicken
 70
    13
177
     3
291
     1
 70
    58
 90
        2
176
     1
 90
        2
176
     1
 90
        0
176
     1
 90
        0
176
     1
 40
0.6
176
     1
 40
30.0
176
     1
 62
     7
420
 16777215
176
     1
 90
        1
176
     1
 90
        4
176
     1
 62
     7
176
     1
 62
   257
176
     1
 90
        1
176
     1
 90
        1
176
     1
 40
1.0
176
     1
 90
       12
176
     1
 62
     7
176
     1
 40
1.0
176
     1
 90
        1
176
     1
 90
        6
176
     1
 90
        2
176
     1
 62
     7
176
     1
 90
        5
176
     1
 90
        0
176
     1
 90
        0
176
     1
290
     0
176
     1
 90
        1
176
     1
 40
0.0
176
     1
 90
        0
176
     1
290
     0
176
     1
290
     1
176
     1
290
     1
176
     1
290
     0
176
     1
290
     0
176
     1
290
     0
176
     1
290
     0
176
     1
290
     0
176
     1
290
     0
176
     1
 90
       50
176
     1
 40
0.0
176
     1
 40
1.0
176
     1
 90
        0
176
     1
 62
   178
420
        0
176
     1
 90
       50
176
     1
 90
        3
176
     1
 62
     5
420
      255
176
     1
290
     0
176
     1
 90
       50
176
     1
 90
       50
176
     1
 90
       50
176
     1
290
     0
176
     1
 90
       50
176
     1
 62
   256
176
     0
 40
1.0
176
     0
 90
        2
176
     1
  1
strokes_ogs.tif
176
     1
290
     0
176
     1
 40
1.0
176
     1
 40
1.0
176
     1
  0
VISUALSTYLE
  5
30
102
{ACAD_REACTORS
330
2A
102
}
330
2A
100
AcDbVisualStyle
  2
Wireframe
 70
     5
177
     3
291
     0
 70
    58
 90
        0
176
     1
 90
        2
176
     1
 90
        0
176
     1
 90
        0
176
     1
 40
0.6
176
     1
 40
30.0
176
     1
 62
     7
420
 16777215
176
     1
 90
        1
176
     1
 90
        4
176
     1
 62
     7
176
     1
 62
   257
176
     1
 90
        1
176
     1
 90
        1
176
     1
 40
1.0
176
     1
 90
        0
176
     1
 62
   257
176
     1
 40
1.0
176
     1
 90
        1
176
     1
 90
        6
176
     1
 90
        2
176
     1
 62
     7
176
     1
 90
        3
176
     1
 90
        0
176
     1
 90
        0
176
     1
290
     0
176
     1
 90
        1
176
     1
 40
0.0
176
     1
 90
        0
176
     1
290
     0
176
     1
290
     1
176
     1
290
     1
176
     1
290
     0
176
     1
290
     0
176
     1
290
     0
176
     1
290
     0
176
     1
290
     0
176
     1
290
     0
176
     1
 90
       50
176
     1
 40
0.0
176
     1
 40
1.0
176
     1
 90
        0
176
     1
 62
   178
420
        0
176
     1
 90
       50
176
     1
 90
        3
176
     1
 62
     5
420
      255
176
     1
290
     0
176
     1
 90
       50
176
     1
 90
       50
176
     1
 90
       50
176
     1
290
     0
176
     1
 90
       50
176
     1
 62
   256
176
     0
 40
1.0
176
     0
 90
        2
176
     1
  1
strokes_ogs.tif
176
     1
290
     0
176
     1
 40
1.0
176
     1
 40
1.0
176
     1
  0
VISUALSTYLE
  5
40
102
{ACAD_REACTORS
330
2A
102
}
330
2A
100
AcDbVisualStyle
  2
X-Ray
 70
    25
177
     3
291
     0
 70
    58
 90
        2
176
     1
 90
        2
176
     1
 90
        1
176
     1
 90
        1
176
     1
 40
0.5
176
     1
 40
30.0
176
     1
 62
     7
420
 16777215
176
     1
 90
        1
176
     1
 90
        0
176
     1
 62
     7
176
     1
 62
   257
176
     1
 90
        1
176
     1
 90
        1
176
     1
 40
1.0
176
     1
 90
        8
176
     1
 62
     7
176
     1
 40
1.0
176
     1
 90
        1
176
     1
 90
        6
176
     1
 90
        2
176
     1
 62
     7
176
     1
 90
        3
176
     1
 90
        0
176
     1
 90
        0
176
     1
290
     0
176
     1
 90
       13
176
     1
 40
0.0
176
     1
 90
        0
176
     1
290
     0
176
     1
290
     1
176
     1
290
     1
176
     1
290
     0
176
     1
290
     0
176
     1
290
     0
176
     1
290
     0
176
     1
290
     0
176
     1
290
     0
176
     1
 90
       50
176
     1
 40
0.0
176
     1
 40
1.0
176
     1
 90
        0
176
     1
 62
   178
420
        0
176
     1
 90
       50
176
     1
 90
        3
176
     1
 62
     5
420
      255
176
     1
290
     0
176
     1
 90
       50
176
     1
 90
       50
176
     1
 90
       50
176
     1
290
     0
176
     1
 90
       50
176
     1
 62
   256
176
     0
 40
1.0
176
     0
 90
        2
176
     1
  1
strokes_ogs.tif
176
     1
290
     0
176
     1
 40
1.0
176
     1
 40
1.0
176
     1
  0
DICTIONARYVAR
  5
439
102
{ACAD_REACTORS
330
438
102
}
330
438
100
DictionaryVariables
280
     0
  1
1:1
  0
ENDSEC
  0
EOF
